Oops, an error
Loading. Please wait.

Si Bheag Si Mhor Tab

238 views 30 this week
no commentswrite comment
1 2 3 4 5
3 more votes to show rating
add to favorites
launch autoscroll
font size
0
reset
how to read this tab
guitar tuner
Autoscroll
slow
fast
+/-
esc
set tempo
stop
Help us to improve Ultimate-Guitar.com Take our survey!
×
Author
Difficulty
Tuning
intermediate
D G C F A D
From video: Celtic Fingerstyle Guitar An Introduction Tony McManus

Tunning: DADGAD


[Part 1]

D|-----0/2--|--2/4----2-0--|--0----2--0--|--------------|--------------|----------0------|
A|--0-------|--0-----------|--0----------|--------------|--------------|--------4--------|
G|----------|--------------|-------------|--2h4------2--|-----------2--|--4-2-4----------|
D|----------|--0-----------|-------------|--0--------0--|--2h3h4-------|-----------------|
A|----------|-----------4--|--2-------0--|--------------|--0-----------|-----------------|
D|----------|--------------|-------------|--5--------4--|--0-----------|--5-------4------|


D|--0h2------4h0--|----------|
A|--0-------------|--5/7-----|
G|----------------|----------|
D|----------------|----------|
A|--0-------------|--0-------|
D|----------------|----------|


D|-----0/2--|--2/4h----h5h4----|--0----4----|-------2----|-------0--|-----------------|
A|--0-------|--0-----------h7--|--0---------|--2---------|--0-------|-----------------|
G|----------|------------------|------------|------------|----------|-----------------|
D|----------|--0---------------|------------|------------|----------|--2/4h---h5h4----|
A|----------|------------------|------------|------------|----------|--0----------h7--|
D|----------|------------------|--4---------|--5---------|--4-------|--0--------------|


D|-------4----|-------2----|----------2h0-----|--0-----------|
A|------------|--2---------|--0------------4--|--0-----------|
G|---------2--|------------|-------0----------|--------------|
D|--0---------|------------|------------------|--0-----------|
A|--2---------|------------|------------------|--------------|
D|------------|--5---------|--2---------------|--0-----------|


[Part2]

D|-----0/2--|--2/4h--h5h4---0--|--2-h-0--2-h-4--7--|--9-----7----|--2h4----4h2h0--|
A|--0-------|--0---------h7----|-------------------|-------------|----------------|
G|----------|------------------|-------------------|-------------|----------------|
D|----------|--0---------------|---------0------4--|-------------|----------------|
A|----------|------------------|--4----------------|-------------|----------------|
D|----------|------------------|-------------------|--5-----4----|--0-------------|

D|--2----7----|--2h4----2-h-0-|--0--------------|------------|----------------|
A|------------|--0------------|--------0-0h2----|--2----0----|----------------|
G|------------|--0------------|------0----------|------------|----------------|
D|------------|---------------|----0------------|------------|--2/4---h5h4----|
A|--4---------|--2------------|-----------------|------------|--0---------h7--|
D|------------|---------------|--5--------4-----|--2---------|--0-------------|

D|-------4----|---------2--|---------7--|--9-h-7-h-5--------0--|--0h2----h4h2h0----|--0--------|
A|------------|--2---------|--0---------|------------h9-h-7----|--0------------h4--|--0--------|
G|---------2--|------------|------------|--0-------------------|-------------------|--2--------|
D|--0---------|------------|------------|----------------------|-------------------|--0--------|
A|--2---------|------------|------------|----------------------|--0----------------|--x--------|
D|------------|--5---------|--4---------|----------------------|-------------------|--0--------|



************************************

| x  Dead note
| h  Hammer-on
| /  Slide up

************************************
Suggest correction
Give kudos to tab author, rate the tab!
1 2 3 4 5
comments
print report bad tab
guest
You may want to rate the tab now too:
select rating
Wanna post a correction for this tab? Suggest correction