Oops, an error
Loading. Please wait.

Stunt Double Tab

3,160 views 1 this week
2 commentsread comments
1 2 3 4 5
please rate
add to favorites
launch autoscroll
font size
0
reset
how to read this tab
guitar tuner
Tab Pro tools
  • play this tab
  • loop segment
  • change instrument
  • show fretboard
  • metronome
×
Best way to learn
"Stunt Double"
Autoscroll
slow
fast
+/-
esc
set tempo
stop
Contributor
Difficulty
novice
-------------------------------------------------------------------------------
                             stunt double - tony sly
-------------------------------------------------------------------------------
tabbed by: soufex
email: peroxidebox@aol.com

i found a chords-only tab to this that i think requires a capo or something. my chords 
probably way off (the irony here being i'm predominantly a 'punk rock rhythm guitarist') 
i'm pretty sure my lead parts are right.

tuning: standard

intro:

E||-----------------------------------------------------------------------------|
B||--------4-----------------------4-----6--9--8--------------------------------|
G||-5----5--5-6-----6-8-6-5-----5---5-8--8--8--8--------------------------------|
D||---6--------6------------6---------------------------------------------------|
A||----8---------8------------6-------------------------------------------------|
E||-----------------------------------------------------------------------------|

chords:

C                  C#
here's another drink to cover
G#                  Eb
every word you say
C                 C#
find excuses, it wasn't you then
G#                 Eb
sorry, my mistake

C#                      G#
so here comes the part
Eb
where your stunt double plays
C#                      G#
you as somebody else
Eb
to take the fall and blame

(same chords for the second verse, with the piano over the top...)

piano:

E||-9--9--9--9--8--8--8--8--11--11--11--11--11--11--11--11-----------------------|
B||--9--9--9--9--9--9--9--9---9---9---9---9---9---9---9---9----------------------|
G||------------------------------------------------------------------------------|
D||------------------------------------------------------------------------------|
A||------------------------------------------------------------------------------|
E||------------------------------------------------------------------------------|

coda chords:

C# Eb Fb G# (11th fret) G# (4th fret)

piano coda...

E||----------8---9----8--------------------------------------------------------|
B||-9---11---------------------------------------------------------------------|
G||----------------------------------------------------------------------------|
D||----------------------------------------------------------------------------|
A||----------------------------------------------------------------------------|
E||----------------------------------------------------------------------------|

| /  slide up
| \  slide down
| h  hammer-on
| p  pull-off
| ~  vibrato
| +  harmonic
| x  Mute note
===============================================================================
comments
We did not receive enough feedback on this tab! Please rate:
print report bad tab
1 2 3 4 5
2 comments total.
0 reply
frank_pierce wrote on February 4 2009, 11:48 am

intro should be easier to play this way:

E||-----------------------------------------------------------
B||-------------------------------------6--9--8---------------
G||-5----5-8-5-6-----6-8-6-5-----5-8-5-8--8--8--8-------------
D||---6--------6------------6---------------------------------
A||----8---------8------------6-------------------------------
E||-----------------------------------------------------------

but good job on this tab! cheers

0 reply
default_ray wrote on February 25 2009, 02:18 am

instead of C, play F

I want to post or [tab]
guest
You may want to rate the tab now too:
select rating
Please do not post tabs as comments. Select "correction" instead!