Oops, an error
Loading. Please wait.

Via Munich chords

version 3
version 3

Whole song

785 views 6 this week
no commentswrite comment
1 2 3 4 5
1 last vote to show rating
add to favorites
×
Save as Personal and add changes to this tab that will be seen only by you. Learn more ›
×
You can save this tab as Personal to edit and correct it or add notes. All changes will be seen only by you. Learn more »
launch autoscroll
font size
0
reset
transpose
0
reset
simplify chords
display chords
guitar tuner
edit
Autoscroll
slow
fast
+/-
esc
set tempo
stop
Author
Strumming
There is no strumming pattern for this song yet. and get +5 IQ
Tabbed by: Fabio BlenderBR




Intro:
F  Dm  A#  C  F

Intro Riff:
e|-----5---5---5---5---5---5---5---8--6--5--------------|
B|---6---6---6---6---6---6---6---6---------6------------|
G|------------------------------------------------------|
D|------------------------------------------------------|
A|------------------------------------------------------|
E|------------------------------------------------------|



Verse:
F              
Every time I see it clearly
       Dm
It's a time that you are near me
    A#                 C            F
I just don't see the world without you

F 
Walkin' down the streets of munich
        Dm
Where I tried to drink my self sick
         A#         C               A7
Try to forget and soon it will be through




Chorus:
    A#            
But I sing your song
 C
Where ever I go
 F
You're along
      Dm                 A#
Not actually, but in my mind
     C
We cheers another day




Intro:
F  Dm  A#  C  F

Intro Riff:
e|-----5---5---5---5---5---5---5---8--6--5--------------|
B|---6---6---6---6---6---6---6---6---------6------------|
G|------------------------------------------------------|
D|------------------------------------------------------|
A|------------------------------------------------------|
E|------------------------------------------------------|




Verse 2:
F 
2 weeks left, the world is wasted
         Dm
There's nothing poetic about it
     A#                 C              F
The fact is that I'm looking for a friend

F
One that doesn't talk to me
      Dm
And kindly serves me until three
       A#                   C          A7
Not someone that will be there in the end




Chorus:
    A#            
But I sing your song
 C
Where ever I go
 F
You're along
      Dm                 A#
Not actually, but in my mind
     C             Dm     C
We cheers another daaaaaaaaay

A#
Nothing new to us
       C                    F
But every time it does get worse
      Dm              A#
But nevermind, that's life
     C
And all we have is time




Final:
F  A#      3x
F

            
            
Suggest correction
Creating personal tab
Creating personal tab
You can edit any tab online and save it as your Personal.

You can edit, replace or remove any tab part or add personal notes – all changes will be seen only by you.

Personal tabs can be accessed anytime from any device, even offline.
Learn more »
Give kudos to tab author, rate the tab!
1 2 3 4 5
comments
print report bad tab
guest
You may want to rate the tab now too:
select rating
Wanna post a correction for this tab? Suggest correction