Oops, an error
Loading. Please wait.

Buck Cherry Bass Tab

10,922 views 3 this week
no commentswrite comment
1 2 3 4 5
please rate
add to favorites
launch autoscroll
font size
0
reset
guitar tuner
Tab Pro tools
  • play this tab
  • loop segment
  • change instrument
  • show fretboard
  • metronome
×
Best way to learn
"Buck Cherry"
Autoscroll
slow
fast
+/-
esc
set tempo
stop
Contributor
Difficulty
novice
Artist   : Buck Cherry
Title    : Too Drunk To Fuck
Tabbed By: Donutz (ratsmot@hotmail.com)
Tuning   : Standard 5 String BEADG
Notes    : This is my first attempt at Tabbing, I hope it helps.
           You can reproduce or do what you like with this Tab, I
           Didn’t write the song. Just give me credit for the Tab! 


Intro:
G|-----------------------|-----------------------|
D|------3--5--6-5-3------|------3--5--6-5-3------|
A|--5----------------5-3-|--5----------------5-3-|
E|-----------------------|-----------------------|
B|-----------------------|-----------------------|

G|-----------------------|-----------------------|
D|------3--5--6-5-3------|----3---3--------------|
A|--5----------------5-3-|--5---5---5--3---------|
E|-----------------------|----------------5------|
B|-----------------------|-----------------------|


Verse 1: (2x)
“I hit the Bottle…”
G|-----------------------|-----------------------|
D|------3--5--6-5-3------|------3--5--6-5-3------|
A|--5----------------5-3-|--5----------------5-3-|
E|-----------------------|-----------------------|
B|-----------------------|-----------------------|

G|-----------------------|-----------------------|
D|------3--5--6-5-3------|-----------------------|
A|--5----------------5-3-|--0--0--0--3--0-—------|
E|-----------------------|-----------------------|
B|-----------------------|-----------------------|


Bridge:
“Spend my lifetime…”
G|-----------------------------------5-|
D|--------------5-3-0------4-4-5-5--7--|
A|------2-2-3-3--------5-5-------------|
E|--3-3--------------------------------|
B|-------------------------------------|

G|-------------------------------------|
D|--------------5-3-0------------------|
A|------2-2-3-3----------------3-3-3-3-|
E|--3-3----------------5-5-5-5---------|
B|-------------------------------------|


Chorus:
“I’ll get drunk all night…”
G|----------------------------------------------------|
D|-------------------------------------3---3---3------|
A|-5-5---------------------5-5-------5---5---5---3----|
E|------1-1--3-3---3--1---------1-1-----------------5-|
B|----------------------------------------------------|

“I’m Too Drunk to Fuck…”
G|-----------------------|-----------------------|
D|------3--5--6-5-3------|------3--5--6-5-3------|
A|--5----------------5-3-|--5----------------5-3-|
E|-----------------------|-----------------------|
B|-----------------------|-----------------------|

G|-----------------------|-----------------------|
D|------3--5--6-5-3------|----3---3--------------|
A|--5----------------5-3-|--5---5---5--3---------|
E|-----------------------|----------------5------|
B|-----------------------|-----------------------|


Verse 2:  (2x)
“Now the Party was Jumpin…”
G|-----------------------|-----------------------|
D|------3--5--6-5-3------|------3--5--6-5-3------|
A|--5----------------5-3-|--5----------------5-3-|
E|-----------------------|-----------------------|
B|-----------------------|-----------------------|

G|-----------------------|-----------------------|
D|------3--5--6-5-3------|-----------------------|
A|--5----------------5-3-|--0--0--0--3--0-—------|
E|-----------------------|-----------------------|
B|-----------------------|-----------------------|

Bridge:
“I could spend my lifetime…”
G|-----------------------------------5-|
D|--------------5-3-0------4-4-5-5--7--|
A|------2-2-3-3--------5-5-------------|
E|--3-3--------------------------------|
B|-------------------------------------|

G|-------------------------------------|
D|--------------5-3-0------------------|
A|------2-2-3-3----------------3-3-3-3-|
E|--3-3----------------5-5-5-5---------|
B|-------------------------------------|


Chorus:
“I’ll get drunk all night…”
G|--------------------------------------------------------|
D|--------------------------------------------------3-----|
A|-5-5---------------------5-5----------------3---3---5---|
E|------1-1--3-3---3--1---------1-1—-3-3--3-5---5---------|
B|--------------------------------------------------------|

G|-----------------------------------------------------|
D|-----------------------------------------------------|
A|-5-5---------------------5-5-------------------------|
E|------1-1--3-3---3--1---------1-1—-3-3-3-3-3-3-3-3---|
B|-----------------------------------------------------|
                                                                                         
  “Too Drunk to Fuck…”

Solo Break:
G|------------------------------------------------------|
D|------------------------------------------------------|
A|--0h3---------(2)2-3-4-5-5-5-5-5-5-5-5----------------|
E|------0-1-2-3-----------------------------------------|
B|------------------------------------------------------|


G|------------------------------------------------------|
D|-----------------------------4-5-7-5-4----------------|
A|--0h3---------(2)2-3-4-5-5-5--------------------------|
E|------0-1-2-3-----------------------------------------|
B|------------------------------------------------------|

G|----------------------------------------------------------------------|
D|----------------------------------------------------------------------|
A|-0h3---------(2)2-3-4-5-5-5-5-5-5-5-5-0-0-0-0-0-0-0-0-3-3-3-3-3-3-3-3-|
E|-----0-1-2-3----------------------------------------------------------|
B|----------------------------------------------------------------------|


Bass Break:
G|---------------------------------------------------------|
D|----------------------------------6-5-3------------------|
A|---------3-5----------3-5---------------5-3----------3-5-|
E|---1-3--3-------1-3--3-------1-3---------------1-3--3----|
B|-3------------3------------3-----------------3-----------|


“I Can’t eat, Can’t Sleep…”
G|--------------------------------------------------------------------|
D|--------6-5-3--------------6-5-3-------------6-5-3--------3---3-----|
A|--------------5-3----------------5-3-------------—-5-3--5—--5---5-3-|
E|---1-3----------------1-3---------------1-3------------------------5|
B|-3-----------------3------------------3-----------------------------|


Bridge:
“I could spend my lifetime…”
G|-----------------------------------5-|
D|--------------5-3-0------4-4-5-5--7--|
A|------2-2-3-3--------5-5-------------|
E|--3-3--------------------------------|
B|-------------------------------------|

G|-------------------------------------|
D|--------------5-3-0------------------|
A|------2-2-3-3----------------3-3-3-3-|
E|--3-3----------------5-5-5-5---------|
B|-------------------------------------|


Chorus:
“I’ll get drunk all night…”
G|--------------------------------------------------------|
D|--------------------------------------------------3-----|
A|-5-5---------------------5-5----------------3---3---5---|
E|------1-1--3-3---3--1---------1-1—-3-3--3-5---5---------|
B|--------------------------------------------------------|

G|-----------------------------------------------------|
D|-----------------------------------------------------|
A|-5-5---------------------5-5-------------------------|
E|------1-1--3-3---3--1---------1-1—-3-3-3-3-3-3-3-3---|
B|-----------------------------------------------------|
                                                                                         
“I’m too Drunk to Fuck…”

Out:
G|------------------------------------------------------|
D|------------------------------------------------------|
A|--0h3---------(2)2-3-4-5-5-5-5-5-5-5-5----------------|
E|------0-1-2-3-----------------------------------------|
B|------------------------------------------------------|


G|------------------------------------------------------|
D|-----------------------------4-5-7-5-4----------------|
A|--0h3---------(2)2-3-4-5-5-5--------------------------|
E|------0-1-2-3-----------------------------------------|
B|------------------------------------------------------|

G|-----------------------------------------------------------------------|
D|-----------------------------------------------------------------------|
A|-0h3-------(2)2-3-4-5-5-5-5-5-5-5-5-0-0-0-0-0-0-0-0-3-3-3-3-3-3-3-3-5--|
E|-----0-1-2-3-----------------------------------------------------------|
B|-----------------------------------------------------------------------|               
                                                                                        
                    “I’m too Drunk to Fuck”
comments
We did not receive enough feedback on this tab! Please rate:
print report bad tab
1 2 3 4 5
I want to post or [tab]
guest
You may want to rate the tab now too:
select rating
Please do not post tabs as comments. Select "correction" instead!