Oops, an error
Loading. Please wait.

Breathe Again tab

version 2
version 2

Whole song

Interactive

4,258 views 1 this week
2 commentsread comments
1 2 3 4 5
x 3
add to favorites
×
Save as Personal and add changes to this tab that will be seen only by you. Learn more ›
×
You can save this tab as Personal to edit and correct it or add notes. All changes will be seen only by you. Learn more »
launch autoscroll
font size
0
reset
how to read this tab
guitar tuner
edit
Autoscroll
slow
fast
+/-
esc
set tempo
stop
Author
Difficulty
The other tab to me didn't seem to been in the right key. This is in Standard Tuning. Enjoy!

-Cinnamon

Intro

e|-----------------------------------3---------------|
A|--------3--------------3-----------3---------------|
D|-----0--------------0--------------0---------------|     x1
G|--2-----------2------------2-------0-x8------------|
B|-----------------2-----------------2---------------|
E|-----------------------------------3---------------|

Verse/Chorus (Both have same chord progression, just different strumming.)


e|--3------3------3-----3----------------------------|
A|--3------3------3-----3----------------------------|
D|--0------0------2-----0----------------------------|     
G|--2------0------0-----2----------------------------|
B|--3------2------------2----------------------------|
E|---------3-----------------------------------------|

Bridge:

e|--3-----3-------------3----------------------------|
A|--3-----3-------------3------2---------------------|
D|--0-----0----x3-------0------2---------------------|     
G|--2-----2-------------2------2---------------------|
B|--2-----3-------------2----------------------------|
E|---------------------------------------------------|


Lyrics:

she's got this journal filled
with all her black ink guilt
and love is the only thing keeping her alive
she's got her mind made up
that all she needs is love
her heart is the only thing helping her decide
to breathe again, to breathe again

and when she's tired she doesn't sleep
a week since I've seen her eat
She's skin and bones, she's beautiful
no matter what
I wish I could help her see
she means the world to me
But the world, it doesn't mean much to her

I'll be there to split your lips
like when the ice berg hits
and the ship has to break apart
show its teeth and smile

she's got this journal filled
with all her black ink guilt
and love is the only thing keeping her alive
she's got her mind made up
that all she needs is love
and she'll breathe again
and she'll breathe again
and she'll breathe again
she'll breathe again, again 

            
            
Suggest correction
Creating personal tab
Creating personal tab
You can edit any tab online and save it as your Personal.

You can edit, replace or remove any tab part or add personal notes – all changes will be seen only by you.

Personal tabs can be accessed anytime from any device, even offline.
Learn more »
Give kudos to tab author, rate the tab!
1 2 3 4 5
comments
print report bad tab
2 comments total.
+1 reply
Ace2705 61 Aug 21, 2007 09:21 AM

the real way to play the song is tune your guitar down a whole step and then the chords are F C G Am

i know because jimmy robbins (of too sorry for apologies) is the one that showed me how to play it

0 reply
jsc2ptch 31 Dec 13, 2007 06:05 AM

some parts missing, like the high notes throughout the verse and stuff. decent, i guess. btw, he doesn't play it tuned
down...

guest
You may want to rate the tab now too:
select rating
Wanna post a correction for this tab? Suggest correction