Oops, an error
Loading. Please wait.

Breathe Again Tab

version 3
version 3

Whole song

Interactive

1,122 views 1 this week
no commentswrite comment
1 2 3 4 5
please rate
add to favorites
launch autoscroll
font size
0
reset
how to read this tab
guitar tuner
Autoscroll
slow
fast
+/-
esc
set tempo
stop
Help us to improve Ultimate-Guitar.com Take our survey!
×
Good song to play... doesnt NEED two guitars, the second guitar just plays a
little bit of the 1-note stuff 


TUNING 

Gtr I Standard 
Gtr II Standard


 Intro
  Q=90
  E                  B
 4/4                                     2/4
  Gtr I
|------------------|--------------------|-----------|
|------4-----(4)-4-|--------4-----------|-----------|
|---1--------------|------1----4--4-4-4-|-4-4-4-4-x-|
|-2----------------|----2------4--4-4-4-|-4-4-4-4-x-|
|------------------|-2---------2--2-2-2-|-2-2-2-2-x-|
|------------------|--------------------|-----------|
|
| Gtr II
|-----(0)----(0)---|------4-------------|-----------|
|------4-----(4)-4-|------5-------------|-5-5-5-----|
|---1--------------|-4-/6-6-------------|-4-4-4-x-x-|
|-2----------------|-4-/6-6-------------|-4-4-4-x-x-|
|------------------|-2-/4-4-2-(2)-------|-------x-x-|
|-0----------------|--------------------|-----------|


   Verse
    E         B           F#      G#
   4/4
||----------------------|-----------------------|
||o---------------------|-----------------------|
||--9-x-x-x-x-4-x-x-x-x-|-----------------------|
||--9-x-x-x-x-4-x-x-x-x-|-4-x-x-4-6-------6-----|
||o-7-x-x-x-x-2-x-x-x-x-|-4-x-x-4-6-------6-----|
||----------------------|-2-x-x-2-4-------4-----|
|
||----2-2-------2-2-----|-------------2---2-----|
||o---------------------|---4-4---0h2---2---0h4-|
||----------------------|-----------------------|
||----------------------|-----------------------|
||o---------------------|-----------------------|
||----------------------|-----------------------|


                   1.
  E       B         F#      G#
|-----------------|--------------------------||
|-----------------|-------------------------o||
|-9-----x-4-----x-|--------------------------||
|-9-----x-4-----x-|-4---x-4-6-------6--------||
|-7-----x-2-----x-|-4---x-4-6-------6-------o||
|-----------------|-2---x-2-4-------4--------||
|
|---2-2-----2-2---|-------------2---2--------||
|-----------------|---4-4---0h2---2---0h4---o||
|-----------------|--------------------------||
|-----------------|--------------------------||
|-----------------|-------------------------o||
|-----------------|--------------------------||


                        Chorus
  2.
  F#      G#             E        B          F#     G#
|--------------------||--------------------|-------------------||
|--------------------||o-------------------|------------------o||
|------------6-6-6---||--9--9-9-9-4-x-4-4--|-------------------||
|-4---4-4-/6-6-6-6---||--9--9-9-9-4-x-4-4--|-4--4-4-/6-6-6-6---||
|-4---4-4-/6-x-x-x---||o-7--7-7-7-2-x-2-2--|-4--4-4-/6-6-6-6--o||
|-2---2-2-/4-4-4-4---||--------------------|-2--2-2-/4-4-4-4---||
|
|--------------2-2---||--------------------|-------------------||
|---4-4-4--0h2-----4-||o-------------------|----4-------------o||
|--------------------||--9--9-x-x-x-x-4-4--|----x------6-6-6---||
|--------------------||--9--9-x-x-x-x-4-4--|-4--4---/6-6-6-6---||
|--------------------||o-7--7-x-x-x-x-2-2--|-4--4---/6-x-x-x--o||
|--------------------||--------------------|-2--2---/4-4-4-4---||


                     To Coda
  E         B             F#           E        B
|-----------------------|----------||---------------------|
|-----------------------|----------||o--------------------|
|-9---9-9-9-4-x-4-4-x-x-|----------||--9-x-9-9--4-x-4-4---|
|-9---9-9-9-4-x-4-4-x-x-|-4--------||--9-x-9-9--4-x-4-4---|
|-7---7-7-7-2-x-2-2-x-x-|-4--------||o-7-x-7-7--2-x-2-2---|
|-----------------------|-2--------||---------------------|
|
|-----------------------|----------||---------------------|
|-2S4-0-2-------4-0-0h2-|-2--------||o-------9--------4---|
|-----------------------|----------||--x-x-9-9--x-x-4-4---|
|-----------------------|----------||--x-x-9-9--x-x-4-4---|
|-----------------------|----------||o-x-x-7-7--x-x-2-2---|
|-----------------------|----------||---------------------|


  1.,2.,3.              4.
                             D.C. al Coda
  F#       B            F#       B
                     4x
|--------------------||-------------------|
|-------------------o||-------------------|
|----------4-x-4-4---||----------4-x-4-4--|
|-4-x-4-4--4-x-4-4---||-4-x-4-4--4-x-4-4--|
|-4-x-4-4--2-x-2-2--o||-4-x-4-4--2-x-2-2--|
|-2-x-2-2------------||-2-x-2-2-----------|
|
|                    4x
|--------------------||-------------------|
|----------------4--o||----------------4--|
|-------3--x-x-4-4---||-------3--x-x-4-4--|
|-x-x-4-4--x-x-4-4---||-x-x-4-4--x-x-4-4--|
|-x-x-4-4--x-x-2-2--o||-x-x-4-4--x-x-2-2--|
|-x-x-2-2------------||-x-x-2-2-----------|


   Interlude
                           1.
    &
    E           B           E           B
||------------|-----------|-----------|--------||
||o-^9--------|-^4--------|-^9--------|-^4----o||
||--^9--------|-^4--------|-^9--------|-^4-----||
||--^9--------|-^4--------|-^9--------|-^4-----|| ---> arpeggios 
||o-^7--------|-^2--------|-^7--------|-^2----o||
||------------|-----------|-----------|--------||
|
||------------|-----------|-----------|--------||
||o-----------|-----------|-----------|-------o||
||------------|-----------|-----------|--------||
||------------|-----------|-----------|--------||
||o-----------|--2--------|-----------|--2----o||
||---0--------|-----------|--0--------|--------||


                                   Outro
  2.
  E              A    E/A           E       B         F#      G#
|--------------|------------------|-----------------|----------------------|
|--------------|-2----------------|-----------------|----------------------|
|-9----9-9-9-9-|-2--2-1-(1)-1-1-1-|-9-x-x-9-4-x-x-4-|----------------------|
|-9----9-9-9-9-|-2--2-2-(2)-2-2-2-|-9-x-x-9-4-x-x-4-|-4-x-x-4-6--------6-6-|
|-7----7-7-7-7-|-0--0-0-(0)-0-0-0-|-7-x-x-7-2-x-x-2-|-4-x-x-4-6--------6-6-|
|--------------|------------------|-----------------|-2-x-x-2-4--------4-4-|
|
|--------------|------------------|---2-2-----2-2---|-------------2---2----|
|--------------|-2--2-2-(2)-2-2-2-|-----------------|---4-4---0h2---2---0h4|
|-9----9-9-9-9-|-2--2-x-(x)-x-x-x-|-----------------|----------------------|
|-9----9-9-9-9-|-2--2-2-(2)-2-2-2-|-----------------|----------------------|
|-7----7-7-7-7-|-0--0-0-(0)-0-0-0-|-----------------|----------------------|
|--------------|------------------|-----------------|----------------------|


  E       B         F#      G#
|-----------------|-----------------------|
|-----------------|-----------------------|
|-9-x-x-9-4-x-x-4-|-----------------------|
|-9-x-x-9-4-x-x-4-|-4-x-x-4-6-------------|
|-7-x-x-7-2-x-x-2-|-4-x-x-4-6-------------|
|-----------------|-2-x-x-2-4---------4---|
|
|---2-2-----2-2---|-------------2---2-----|
|-----------------|---4-4---0h2---2---0h4-|
|-----------------|-----------------------|
|-----------------|-----------------------|
|-----------------|-----------------------|
|-----------------|-----------------------|


    E        B          F#     G#
                                          5x
||--------------------|-------------------||
||o-------------------|------------------o||
||--9--9-9-9-4-x-4-4--|-------------------||
||--9--9-9-9-4-x-4-4--|-4--4-4-/6-6-6-6---||
||o-7--7-7-7-2-x-2-2--|-4--4-4-/6-6-6-6--o||
||--------------------|-2--2-2-/4-4-4-4---||
|
|                                         5x
||--------------------|-------------------||
||o-------------------|----4------4-4-4--o||
||--9--9-x-x-x-x-4-4--|----x------6-6-6---||
||--9--9-x-x-x-x-4-4--|-4--4---/6-6-6-6---||
||o-7--7-x-x-x-x-2-2--|-4--4---/6-x-x-x--o||
||--------------------|-2--2---/4-4-4-4---||


  E    B      F#
|-----------|----------|--------*|
|-----------|----------|--------*|
|-9----4----|----------|--------*|
|-9----4----|-4--------|-(4)----*|
|-7----2----|-4--------|-(4)----*|
|-----------|-2--------|-(2)----*|


Suggest correction
Give kudos to tab author, rate the tab!
1 2 3 4 5
comments
print report bad tab
guest
You may want to rate the tab now too:
select rating
Please do not post tabs as comments. Select "correction" instead!