Oops, an error
Loading. Please wait.

10000 Days Wings Part 2 bass

version 2
version 2

Whole song

Interactive

by Tool
20,131 views 30 this week
12 commentsread comments
1 2 3 4 5
x 9
add to favorites
×
Save as Personal and add changes to this tab that will be seen only by you. Learn more ›
×
You can save this tab as Personal to edit and correct it or add notes. All changes will be seen only by you. Learn more »
launch autoscroll
font size
0
reset
guitar tuner
edit
Autoscroll
slow
fast
+/-
esc
set tempo
stop
Artist: Tool
Song: 10,000 Days Wings Part 2
Tuning: Drop-D
Tabbed by: BassPlayer275

(Justin confessed to Bass Guitar Magazine that he plays this song 
fingerstyle. I find it easier this way rather than using a pick. Apparently he does too)

G|-5-5-5-5-5-5-4-4-4-4-4-4-5-5-5-5-5-5-4-4-4-4-4-4-|---0---0---0---0---0---0---0---0-|
D|-7-7-7-7-7-7-7-7-7-7-7-7-7-7-7-7-7-7-7-7-7-7-7-7-|--7---7---7---7---7---7---7---7--|
A|--0-0-0-0-0-0-0-0-0-0-0-0-0-0-0-0-0-0-0-0-0-0-0--|-0---0---0---0---0---0---0---0---|
D|-------------------------------------------------|---------------------------------|

[3:42]
G|-5-5-5-5-5-5-4-4-4-4-4-4-5-5-5-5-5-5-7-7-7-4-4-4-|---0---0---0---0---0---0---0---0-|
D|-7-7-7-7-7-7-7-7-7-7-7-7-7-7-7-7-7-7-7-7-7-7-7-7-|--7---7---7---7---7---7---7---7--|
A|--0-0-0-0-0-0-0-0-0-0-0-0-0-0-0-0-0-0-0-0-0-0-0--|-0---0---0---0---0---0---0---0---|
D|-------------------------------------------------|---------------------------------|

[4:07]
G|-5-5-5-5-5-5-4-4-4-4-4-4-5-5-5-5-5-5-------------------9-------|
D|-7-7-7-7-7-7-7-7-7-7-7-7-7-7-7-7-7-7--12-12-12-12----7---7---7-|
A|--0-0-0-0-0-0-0-0-0-0-0-0-0-0-0-0-0---0--0--0--0---0-------0---|
D|---------------------------------------------------------------|

G|----------------------------------9----|----------------------------------9----|
D|-/12--9--/10--7--/9---9-5---5---7---7--|-/12--9--/10--7--/9---9-5---5---7---7--|
A|--------------------0-----0---0--------|--------------------0-----0---0--------|
D|---------------------------------------|---------------------------------------|

G|----------------------------------9-------|-------------------------------|
D|-/12--9--/10--7--/9---9-5---5---7---7---7-|-/12--9--/10--7--/9---9-5---5/-|
A|--------------------0-----0---0-------0---|--------------------0-----0----|
D|------------------------------------------|-------------------------------|

[4:45]
G|-17-17-17-17-17-17-16-16-16-16-16-16-17-17-17-17-17-17-16-16-16-16-16-16-|
D|-19-19-19-19-19-19-19-19-19-19-19-19-19-19-19-19-19-19-19-19-19-19-19-19-|
A|-------------------------------------------------------------------------|
D|-------------------------------------------------------------------------|

G|---0---0---0---0---0---0---0---0-|
D|--7---7---7---7---7---7---7---7--|
A|-0---0---0---0---0---0---0---0---|
D|---------------------------------|

G|-17-17-17-17-17-17-16-16-16-16-16-16-17-17-17-17-17-17-16-16-16-16-16-16-|
D|-19-19-19-19-19-19-19-19-19-19-19-19-19-19-19-19-19-19-19-19-19-19-19-19-|
A|-------------------------------------------------------------------------|
D|-------------------------------------------------------------------------|

G|---0---0---0---0---0---0---0---0-|
D|--7---7---7---7---7---7---7---7--|
A|-0---0---0---0---0---0---0---0---|
D|---------------------------------|

G|-17-17-17-17-17-17-16-16-16-16-16-16-17-17-17-17-17-17-19-19-19-16-16-16-|
D|-19-19-19-19-19-19-19-19-19-19-19-19-19-19-19-19-19-19-19-19-19-19-19-19-|
A|-------------------------------------------------------------------------|
D|-------------------------------------------------------------------------|

G|-24--23--21---24--23--21---|
D|---------------------------|
A|---------------------------|
D|---------------------------|

G|-17-17-17-17-17-17-16-16-16-16-16-16-16-16-16-19-19-19-17--17--17--17--17--17---|
D|-19-19-19-19-19-19-19-19-19-19-19-19-19-19-19-19-19-19--------------------------|
A|---------------------------------------------------------15--15--15--15--15--15-|
D|--------------------------------------------------------------------------------|

G|-24--23--21---24--23--21---24--23--21---24--23--21---|
D|-----------------------------------------------------|
A|-----------------------------------------------------|
D|-----------------------------------------------------|

[5:37]
G|---------------------------|
D|-7--5--7--10--5h7----------|
A|---0--0--0---0----0-5h7-0--| x15
D|---------------------------|

G|------------------------------|
D|-7--5--7---10--12--13--12--10-|
A|---0--0-----------------------|
D|------------------------------|

G|---------------------------|
D|-7--5--7--10--5h7----------|
A|---0--0--0---0----0-5h7-0--| x14
D|---------------------------|

G|-------------------------------------|
D|-7-5-7-5-7-5-7-5-7-5-7-5-7-5-7-5-7-5-|
A|-------------------------------------|
D|-------------------------------------|

G|---------------------------|
D|-7--5--7--10--5h7----------|
A|---0--0--0---0----0-5h7-0--| x14
D|---------------------------|

[7:54]
G|-------------------------------|
D|-------5h7-----------5h7-------|
A|-3-0-0-----0---0-3-0-----0---0-| x10
D|-------------------------------|

G|-------------------------|---------------------------|  this part is hard to hear
D|--------------------5h7--|---------------------------|  and is probably not what JC
A|-3--0-0-0-0--3--0-0------|-3--0-0-0-0--3--0-0-0-0----|  plays, but it fits.
D|-------------------------|---------------------------|

[8:36]                                      (burden of proof...)
G|-------------------------------------------------|-----------------7---7---|
D|-7-----------7-----------7-----------7-----------|---------------5---5---5-|
A|----0-3-0-0-----0-3-0-0-----0-3-0-0-----0-3-0-0--|-8-8-8-8-8-8-5-----------| x2
D|-------------------------------------------------|-------------------------|

G|----------------------------|
D|----------------------------|
A|----------------------------| x7
D|-7--5--7--10--0-5h7-0-0h2-0-|

G|-----------------------|
D|-----------------------|
A|-----------------------|
D|-7--5--7--10--10-10-10-|

G|-------------------------------------------------|
D|-------------------------------------------------|
A|-------------------------------------------------|
D|-9-9-9-9-9--0-0-0-0-0--9-9-9-9-9--12-12-12-12-12-|

G|-----------------------------------------------------|
D|-----------------------------------------------------|
A|-----------------------------------------------------|
D|-9-9-9-9-9--0-0-0-0-0--9-9-9-9-9-9-12-12-12-12-12-12-|

G|-----------------------------------------|
D|-----------------------------------------|
A|-----------------------------------------|
D|-5-5-5-5-5-5-2-2-2-2-2-2-5-5-5-5-5-5-0---|

[9:31]
G|--------------------------------------------9-|
D|------------------------------------------7---|
A|-/8--5\---/12--5\---/8--5\---/8/9/10/11-0-----|
D|----------------------------------------------|

G|----------------------------------9--|
D|-/12--9--/10--7--/9---9-5---5---7----|
A|--------0-----------0-----0---0------| x6
D|-------------------------------------|

G|---------------------------|
D|-/12--9--/10--7--/9--5--/7-|
A|---------------------------|
D|---------------------------|



************************************

| /  Slide up
| h  Hammer-on
| \  Slide down

************************************

            
            
Suggest correction
Creating personal tab
Creating personal tab
You can edit any tab online and save it as your Personal.

You can edit, replace or remove any tab part or add personal notes – all changes will be seen only by you.

Personal tabs can be accessed anytime from any device, even offline.
Learn more »
comments
print report bad tab
12 comments total. Showing first comments.
0 reply
CorBe 350 Nov 19, 2006 10:43 AM

Nicely Done Keep pu the good work. It sounds Great.

0 reply
bassplayer275 212 Dec 23, 2006 07:07 AM, edited on March 19 2016, 08:32 pm

i want to make a small correction to my tab. when justin goes up an octave at 4:45, he continues to play the A (originally D|-7-|, now an octave higher at D|-19-|) don't know how i missed that. (4:45)G|-17-17-17-17-17-17-16-16-16-16-16-16-17-17-17-17-17-17-16-16-16-16-16-16-|D|-19-19-19-19-19-19-19-19-19-19-19-19-19-19-19-19-19-19-19-19-19-19-19-19-|A|-------------------------------------------------------------------------|D|-------------------------------------------------------------------------|G|---2---2---2---2---2---2---2---2-|D|--5---5---5---5---5---5---5---5--|A|-0---0---0---0---0---0---0---0---|D|---------------------------------|G|-17-17-17-17-17-17-16-16-16-16-16-16-17-17-17-17-17-17-16-16-16-16-16-16-|D|-19-19-19-19-19-19-19-19-19-19-19-19-19-19-19-19-19-19-19-19-19-19-19-19-|A|-------------------------------------------------------------------------|D|-------------------------------------------------------------------------|G|---2---2---2---2---2---2---2---2-|D|--5---5---5---5---5---5---5---5--|A|-0---0---0---0---0---0---0---0---|D|---------------------------------|G|-17-17-17-17-17-17-16-16-16-16-16-16-17-17-17-17-17-17-19-19-19-16-16-16-|D|-19-19-19-19-19-19-19-19-19-19-19-19-19-19-19-19-19-19-19-19-19-19-19-19-|A|-------------------------------------------------------------------------|D|-------------------------------------------------------------------------|G|-24--23--21---24--23--21---|D|---------------------------|A|---------------------------|D|---------------------------|G|-17-17-17-17-17-17-16-16-16-16-16-16-16-16-16-19-19-19-17--17--17--17--17--17---|D|-19-19-19-19-19-19-19-19-19-19-19-19-19-19-19-19-19-19--------------------------|A|---------------------------------------------------------15--15--15--15--15--15-|D|--------------------------------------------------------------------------------|G|-24--23--21---24--23--21---24--23--21---24--23--21---|D|-----------------------------------------------------|A|-----------------------------------------------------|D|-----------------------------------------------------|

0 reply
bassplayer275 212 Dec 23, 2006 07:08 AM

*correction: he continues to play an A, not D

guest
You may want to rate the tab now too:
select rating
Wanna post a correction for this tab? Suggest correction