Oops, an error
Loading. Please wait.

10000 Days Wings bass

version 2
version 2

Whole song

by Tool
14,440 views 9 this week
10 commentsread comments
1 2 3 4 5
x 6
add to favorites
×
Save as Personal and add changes to this tab that will be seen only by you. Learn more ›
×
You can save this tab as Personal to edit and correct it or add notes. All changes will be seen only by you. Learn more »
launch autoscroll
font size
0
reset
guitar tuner
edit
Autoscroll
slow
fast
+/-
esc
set tempo
stop
Title: Wings For Marie
Artist: TooL
Tuning: Drop D
Tabbed By: BassPlayer275

**im gonna give credit where its due so no one accuses me of stealing! i would like to thank
Oreomeister for uploading his power tab version of the song. i refered to his interpretation
when i got stuck on some of the fills. thanks!

P.S. - Please leave feedback and let me know if anything is wrong!

(2:12)
G|------------<5>-----<5>------|
D|---------<5>-----<7>---------|
A|--0--------------------------|
D|-----------------------------|

G|-----------------9----------|-----------------9--------------------|
D|---5/10-10---10--7----------|---5/10-10---10--7------------7-----7-|
A|-3---------8---------0----5-|-3---------8---------0-----0-----5----|
D|----------------------------|--------------------------------------|

G|-----------------9------9--12--9--12-------------------|
D|---5/10-10---10--7---7------------------7------7-------|
A|-3---------8----------------------------0------0-----5-|
D|-------------------------------------------------------|

G|-----------------9----------|-----------------9---9--12--9-----12--|
D|---5/10-10---10--7----------|---5/10-10---10--7--------------------|
A|-3---------8---------0----5-|-3---------8--------------------------|
D|----------------------------|--------------------------------------|

G|-21-12---18-18---|-----7-----9-----7-----------9---|
D|-----------------|---7-----7-----7-----7-----7---7-|
A|-----------------|-5-----7-----5-----5---5-0-------|
D|-----------------|---------------------------------|

  "It was you who prayed for me..."
G|----------------------------------9---|----------------------------------9-|
D|-/12--9--/10--7--/9---9-5---5---7---7-|-/12--9--/10--7--/9---9-5---5---7---|
A|--------------------0-----0---0-------|--------------------0-----0---0-----|
D|--------------------------------------|------------------------------------|

  "To be worthy..."
G|---------4p2h4-----------4-----------4p2h4----------4p2h4---------4-|
D|--------------------------------------------------------------------|
A|-2p0h2-----------2p0h2-------2p0h2-----------2p0h2---------2p0h2----|
D|--------------------------------------------------------------------|

G|---------4p2h4-----------4-----------4p2h4-----------4-------------4p2h4-----------4-|
D|-------------------------------------------------------------------------------------|
A|-2p0h2-----------2p0h2-------2p0h2-----------2p0h2-------2p0h2-------------2p0h2-----|
D|-------------------------------------------------------------------------------------|

G|-------2--------2--------2--------2--4--|
D|----------------------------------------|
A|-2p0h2----2p0h2----2p0h2----2p0h2----2--|
D|----------------------------------------|

G|-------------------------------------------------|
D|-------------------------------------------------|
A|-------------------------------------------------|
D|-9-9-9-9-9--0-0-0-0-0--9-9-9-9-9--12-12-12-12-12-|

G|------------------------------------------------------|
D|------------------------------------------------------|
A|------------------------------------------------------|
D|-9-9-9-9-9--0-0-0-0-0--9-9-9-9-9-9--12-12-12-12-12-12-|

G|------------------------------------------|
D|------------------------------------------|
A|------------------------------------------|
D|-5-5-5-5-5-5--2-2-2-2-2-2--5-5-5-5-5-5--0-|

G|-------|-------|-------|-----------------9-|
D|-------|-------|-------|---------------7---|
A|-8--5--|-8--5--|-8--5--|-8/9/10/11/12------|
D|-------|-------|-------|-------------------|

 "Daylight dims leaving..."
G|----------------------------------9-|
D|-/12--9--/10--7--/9---9-5---5---7---| x7
A|--------------------0-----0---0-----|
D|------------------------------------|

  "Alright now, its time..."
G|---------------------------|
D|-/12--9--/10--7--/9--5--/7-|
A|---------------------------|
D|---------------------------|

            
            
Suggest correction
Creating personal tab
Creating personal tab
You can edit any tab online and save it as your Personal.

You can edit, replace or remove any tab part or add personal notes – all changes will be seen only by you.

Personal tabs can be accessed anytime from any device, even offline.
Learn more »
comments
print report bad tab
10 comments total. Showing first comments.
0 reply
STeven on bass! 10 Dec 20, 2006 10:39 AM

hey nice tab man but dont you think that at the beginning of the song that that harmonic is the bass? on lowD7

0 reply
bassplayer275 212 Dec 23, 2006 06:54 AM

i saw them at the tweeter center in camden, nj. maynard played the intro of the song on the keyboard. the bass comes in at 2:11.

0 reply
Kid Fisto 161 Dec 30, 2006 09:21 AM

i dont play bass, but i transcribed it to piano and it sounds about right. good job!
and the harmonic could be on the bass, but it sounds more to me like a synthesizer.

guest
You may want to rate the tab now too:
select rating
Wanna post a correction for this tab? Suggest correction