Oops, an error
Loading. Please wait.

46 And 2 Tab

version 1
version 1

Whole song

Interactive

69,963 views 231 this week
5 commentsread comments
1 2 3 4 5
x 33
add to favorites
launch autoscroll
font size
0
reset
how to read this tab
guitar tuner
×
Best way to learn
"46 And 2"
Autoscroll
slow
fast
+/-
esc
set tempo
stop
Author
Tuning
  follow
D A D G B E
e|-------------------------------------------|
B|-------------------------------------------|
G|-------------------------------------------| 
D|-------------------------------------------|
A|-----5----3-5---6-5---3-5---1-3------------|
D|--0-----0-----0-----0-----0----------------|(x3)

e|-------------------------------------------|
B|-------------------------------------------|
G|-------------------------------------------| then this is at
D|----------------------5-4------------------| at the end of
A|-----5----3-5---6-5---------6-5------------| the 3 times
D|--0-----0-----0-----0-----0----------------|

this is played in the background

e|-------------------------------------------|
B|-------------------------------------------|
G|-------------------------------------------|
D|-------------------------------------------|
A|-------------------------------------------|
D|-12--10--13-12-0--12--10--13-12-0--8s10----|

then this really heavy distortion part

e|-----------------------------------------------------|
B|-----------------------------------------------------|
G|-----------------------------------------------------|
D|-----------------------------------------------------|
A|--0--12--0--10--12--0--13--12--0--10--12--0--8--10---|
D|--0--12--0--10--12--0--13--12--0--10--12--0--8--10---|


************************************

| s slide

************************************
Suggest correction
comments
print report bad tab
5 comments total. Showing first comments.
0 reply
mrcran 0 Apr 28, 2002 08:00 PM

You did a good job on the intro but i really think that the bass does the intro and you did finish the song.

+2 reply
Chrysaetos 10 Dec 06, 2002 07:00 PM

yeah, most of the verse riff is played on a bass with flanger and chorus, if you listen hard after the first repition of the verse riff you can hear heavily palm muted guitar coming in (playing something else altogether). this tab is pretty off and tons is left out

+2 reply
Metal_Hed_23 10 Jan 27, 2008 05:25 PM

you tabbed a bass part and completly left out guitar parts

guest
You may want to rate the tab now too:
select rating
Wanna post a correction for this tab? Suggest correction