Oops, an error
Loading. Please wait.

46 And 2 bass

version 3
version 3

Whole song

Interactive

by Tool
5,662 views 201 this week
3 commentsread comments
1 2 3 4 5
x 5
add to favorites
×
Save as Personal and add changes to this tab that will be seen only by you. Learn more ›
×
You can save this tab as Personal to edit and correct it or add notes. All changes will be seen only by you. Learn more »
launch autoscroll
font size
0
reset
guitar tuner
backing track
0:00
0:00
edit
Autoscroll
slow
fast
+/-
esc
set tempo
stop
Tool:
Forty Six & 2

D-Tuned of course, also a flanger I think, I forget the name of the effect. But if I 
and bridges or anything leave a comment.

Verse:
G:|------------------------------------|
D:|------------------------------------|
A:|------5----3h5---6p5----3h5-----1h3-|
D:|--0------0-----0-----0-------0------|

G:|----------------------------------|
D:|-------------------------5p4------|
A:|-------5-----3h5----6h5------6h5--|
D:|---0-----0--------0---------------|

Bridge:
G:|-------------------------------------------------------|
D:|-------------------------------------------------------|
A:|---5--3--------6--5-----5---3-------6-5------1---3-----|
D:|-------------------------------------------------------|

Then to Verse again…
G:|------------------------------------|
D:|------------------------------------|
A:|------5----3h5---6p5----3h5-----1h3-|
D:|--0------0-----0-----0-------0------|

G:|----------------------------------|
D:|-------------------------5p4------|
A:|-------5-----3h5----6h5------6h5--|
D:|---0-----0--------0---------------|

Chorus: First he plays with hammer-ons, and then slides…
G:|--------------------------------------------|
D:|--------------------------------------------|
A:|------5------3/5------6/5-------3/5-----1/3-|
D:|--0-----------------------------------------|

G:|-----------------------|
D:|-----------------------|
A:|-(5)----(5)---(5)---(5)|
D:|--0------0-----0-----0-|

Then bridge for a few bars…
G:|-------------------------------------------------------|
D:|-------------------------------------------------------|
A:|---5--3--------6--5-----5---3-------6-5------1---3-----|
D:|-------------------------------------------------------|

Then back to Verse
G:|------------------------------------|
D:|------------------------------------|
A:|------5----3h5---6p5----3h5-----1h3-|
D:|--0------0-----0-----0-------0------|

G:|----------------------------------|
D:|-------------------------5p4------|
A:|-------5-----3h5----6h5------6h5--|
D:|---0-----0--------0---------------|

Then chorus
G:|--------------------------------------------|
D:|--------------------------------------------|
A:|------5------3/5------6/5-------3/5-----1/3-|
D:|--0-----------------------------------------|

G:|-----------------------|
D:|-----------------------|
A:|-----------------------|
D:|--0------0-----0-----0-|


Then to this:
G:|-------------------------|
D:|-------------------------|
A:|-------------------------|
D:|--0--3--3h5--6p5-3h5-1h3-|

G:|-------------------------|
D:|-------------------------|
A:|-------------------------|
D:|--0--3--3h5--6p5-3h5-1h3-|


Basic Key:
H= hammer on
P= pull off
/= slide

            
            
Suggest correction
Creating personal tab
Creating personal tab
You can edit any tab online and save it as your Personal.

You can edit, replace or remove any tab part or add personal notes – all changes will be seen only by you.

Personal tabs can be accessed anytime from any device, even offline.
Learn more »
comments
print report bad tab
3 comments total.
0 reply
s0berito 104 Mar 15, 2008 02:20 PM

First of all, this tab is totally wrong.
The previous version (no. 3) is about ten times better than this.

Second of all, you left out a shitload of stuff ("parts").
Again I refer you to the previous version (no. 3).

-1 reply
Zachy Boy 279 Mar 16, 2008 08:31 PM

sorry to everyone that reads this. i was debating doing this tab D tuned, or on the d string an octave higher. this tab is right. just an octave lower.

0 reply
bassplayer496 347 Dec 14, 2008 08:31 AM

He really does have the notes right, just an octave lower. Sure it's not perfect but it doesn't deserve one star..come on..

guest
You may want to rate the tab now too:
select rating
Wanna post a correction for this tab? Suggest correction