Oops, an error
Loading. Please wait.

46 And 2 tab

version 4
version 4

Whole song

Interactive

by Tool
9,742 views 6 this week
4 commentsread comments
1 2 3 4 5
x 3
add to favorites
×
Save as Personal and add changes to this tab that will be seen only by you. Learn more ›
×
You can save this tab as Personal to edit and correct it or add notes. All changes will be seen only by you. Learn more »
launch autoscroll
font size
0
reset
how to read this tab
guitar tuner
backing track
0:00
0:00
edit
Autoscroll
slow
fast
+/-
esc
set tempo
stop
TOOL : FORTY-SIX AND TWO
From the album "AENIMA"

--ALL GUITARS ARE IN DROPPED D TUNING--
Guitar I: Slight overdrive, played at somewhat low volume
Guitar II: Overdrive
Guitar III: Overdrive

h=Hammer-on
p=Pull-off
/=Slide up
\=Slide down
pm=Palm muting
\\\\\\\\\\\=Fast picking
ps///////// or ps\\\\\\\\\=Pick Scrape
^=Bend

INTRO AND 1st VERSE: (Guitars I and II)
0:12
Part I: [Guitar I]
E)------------------------------|
B)------------------------------|
G)------------------------------|    (x8)
D)------------------------------|
A)------------------------------|
D)12--10--13---12--10--13---10--|
pm______________________________

0:37
(Do a volume swell with guitar II while bass does its part)

Part II: [guitar I]
E)------------------------------|
B)------------------------------|
G)------------------------------|
D)------------------------------|
A)------------------------------|
D)-0----(let ring)--------------|

E)------------------------------|
B)------------------------------|
G)------------------------------|
D)------------------------------|
A)------------------------------|
D)-10---------------------------|

E)------------------------------|
B)------------------------------|
G)------------------------------|
D)------------------------------|
A)------------------------------|
D)-10---------------------------|

E)------------------------------|
B)------------------------------|
G)------------------------------|
D)------------------------------|
A)------------------------------|
D)-0----------------------------|

E)------------------------------|
B)------------------------------|
G)------------------------------|
D)------10-12------(let ring)---|
A)------------------------------|
D)-0pm--------------------------|

E)------------------------------|
B)------------------------------|
G)------------------------------|
D)------8-10--------------------|
A)-3pm--------------------------|
D)------------------------------|

E)------------------------------|
B)------------------------------|
G)------------------------------|
D)------8-10--------------------|
A)-3pm--------------------------|
D)------------------------------|

E)------------------------------|
B)------------------------------|
G)------------------------------|
D)-0----------------------------|
A)-0--------------10p8----------|
D)-0--------------------10h12---|

(Repeat part II two more times)

CHORUS: (guitar II)
1:55
Part I: [Guitar II]
"...Shadow..."
E)----------------------------------------|
B)----------------------------------------|
G)----------------------------------------|
D)----------------------------------------| (x4)
A)----------------------------------------|
D)-0--12--0h10h12-0h13p12-0h10h12-0h10h12-|
2:07
Part II: [guitar II]
"...Shadow..."
E)----------------------------------------|
B)----------------------------------------|
G)----------------------------------------|
D)----------------------------------------| (x3)
A)-0--12--0h10h12-0h13p12-0h10h12-0h10h12-|
D)-0--12--0h10h12-0h13p12-0h10h12-0h10h12-|
"...My scabs again."
E)------------------------------|
B)------------------------------|
G)------------------------------|
D)-0-----0---0---0--------------|
A)-0-----0---0---0--------------|
D)-0-----0---0---0--------------|
Part III (guitar II)
2:19
E)------------------------------------------|
B)------------------------------------------|
G)------------------------------------------|
D)------------------------------------------| (x4)
A)------------------------------------------|
D)-12-0-10-0-13p12-0-12-0-10-0-13p12-0-8-10-|

2:31(Repeat part III four more times with palm muting)

2nd VERSE: [guitar I]

[guitar I]
"...Crawling on my belly..."
E)------------------------------------------|
B)------------------------------------------|
G)------------------------------------------|
D)------------------------------------------| (x8)
A)------------------------------------------|
D)-12-0-10-0-13p12-0-12-0-10-0-13p12-0-8h10-|
pm__________________________________________

After 8th time, volume swell with guitar II

3:06
REPEAT: CHORUS, part I

3:19 Then add this:
E)------------------------------------------|
B)------------------------------------------|
G)------------------------------------------|
D)------------------------------------------| (x3)
A)-0pm--12--0h10h12-0h13p12-0h10h12-0h10h12-|
D)-0pm--12--0h10h12-0h13p12-0h10h12-0h10h12-|
Then: (listen to song and practice to get timing on this part down)
E)------------------------------------|
B)------------------------------------|
G)------------------------------------|
D)---0---0---0---0--------------------|
A)---0---0---0---0--------------------|
D)---0---0---0---0--------------------|

BRIDGE: [guitars II and III]
Part I: [guitar II]
3:30
E)---------------------------------------|
B)---------------------------------------|
G)---------------------------------------|
D)---------------------------------------|  (x4)
A)---------------------------------------|
D)-10h12-xx-8h10-x-10h12-x-10-x-10h12-xx-|
pm_______________________________________

solo: [guitar II]
E)--------------------------------------------------------|
B)--------------------------------------------------------|
G)--------------------------------------------------------|
D)-12\\\\\\\\\\\\\\\\\\\\\\\\15\\\\\\\\\\\\\\\\\\\\\\\\\\\
A)--------------------------------------------------------|
D)--------------------------------------------------------|

E)--------------------------------------------------------|
B)--------------------------------------------------------|
G)--------------------------------------------------------|
D)-14\\\\\\\\\\\\\\\\\\\\\\\\13\\\\\\\\\\\\\\\\\\\\\\\\\\\
A)--------------------------------------------------------|
D)--------------------------------------------------------|

part III: [guitar II]
3:54
E)-----------------------------|
B)-----------------------------|
G)-----------------------------|
D)-----------------------------| (x4)
A)-0-xx-0-x-3-3-3-3-3-3-3-3-5--|
D)-0-xx-0-x-3-3----------------|

part IV: [guitar II]
4:05
E)---------------------------------|
B)---------------------------------|
G)---------------------------------|
D)---------------------------------|  (x2)
A)---------------------------------|
D)-12-0-10-13p12-0-12-0-10-13p12-0-|
pm_________________________________

E)------------------------------|
B)------------------------------|
G)------------------------------|
D)---------(bass part)----------|  (x2)
A)------------------------------|
D)------------------------------|

Repeat this 2 more times then go on to this:

E)------------------------------|
B)------------------------------|
G)------------------------------|
D)--------(bass part)-----------|  (x2)
A)------------------------------|
D)------------------------------|

4:44
Do a little pick scrape here and then lead into this:
part V: [guitar II]
E)-------------------------------------|
B)-------------------------------------|
G)-------------------------------------|
D)-------------------------------------| (x5)
A)-------------------------------------|
D)-12-0-10-0-13p12-0-12-0-10-0-13p12-0-|

Guitar III starts doing this after part V is played the first three times:
part VI: [guitar III]
4:54
E)-------------------------------------|
B)-------------------------------------|
G)-------------------------------------|
D)-12-0-10-0-13p12-0-12-0-10-0-13p12-0-|  (x2)
A)-------------------------------------|
D)-------------------------------------|

Then: [guitars III and II simultaneously]
4:59
Guitar III:
E)----------------------------------------------|
B)----------------------------------------------|
G)----------------------------------------------|
D)-12---10---13---12---10---13---12---10---13^--|
A)----------------------------------------------|
D)----------------------------------------------|

4:59
Guitar II:
E)--------------------------------------|
B)--------------------------------------|
G)--------------------------------------|
D)--------------------------------------|  (x2)
A)--------------------------------------|
D)-13-12-10-13-12-10-13-12-10-13-12-10--|

E)---------|
B)---------|
G)---------|
D)---------|
A)---------|
D)-13^-0pm-|

OUTRO: [guitars II and III]
Part I: [guitar II]
5:05 "See my shadow's changin'..."
E)-------------------------------------|
B)-------------------------------------|
G)-------------------------------------|
D)-------------------------------------|  (x8)
A)-------------------------------------|
D)-12-0-10-0-13p12-0-12-0-10-0-13p12-0-|

After the first four times this is played, guitar three starts playing this:
E)-------------------------------------|
B)-------------------------------------|
G)-------------------------------------|
D)-12-0-10-0-13p12-0-12-0-10-0-13p12-0-|  (x4)
A)-------------------------------------|
D)-------------------------------------|

Then they both play this:
5:26
E)-------------------------------------------|
B)-------------------------------------------|
G)-------------------------------------------|
D)-------------------------------------------|  (x3)
A)-12-0-10-0-13p12-0-12-0-10-0-13p12-0-8-10--|
D)-12-0-10-0-13p12-0-12-0-10-0-13p12-0-8-10--|

E)----------------------------------|
B)----------------------------------|
G)----------------------------------|
D)----------------------------------|
A)-12-0-10-0-13p12-0-8--10--12--13--|
D)-12-0-10-0-13p12-0-8--10--12--13--|

5:39 (do these simultaneously)
[Guitar III]
E)----------------------------------------|
B)----------------------------------------|
G)----------------------------------------|
D)----------------------------------------| (x3)
A)----------------------------------------|
D)-0--12--0h10h12-0h13p12-0h10h12-0h10h12-|
[Guitar II]
E)---------------------|
B)---------------------|
G)---------------------|
D)-0-----0--0--0--0--0-| (x3)
A)-0-----0--0--0--0--0-|
D)-0-----0--0--0--0--0-|

5:47
Now, have both guitars do this:
E)----------------------------------------|
B)----------------------------------------|
G)----------------------------------------|
D)-0-----0--0--0--0--0-----0--0--0--0-----| (x2)
A)-0-----0--0--0--0--0-----0--0--0--0-----|
D)-0-----0--0--0--0--0-----0--0--0--0-----|
(second time DO NOT PLAY LAST D CHORD)

Take a bow!

            
            
Suggest correction
Creating personal tab
Creating personal tab
You can edit any tab online and save it as your Personal.

You can edit, replace or remove any tab part or add personal notes – all changes will be seen only by you.

Personal tabs can be accessed anytime from any device, even offline.
Learn more »
Give kudos to tab author, rate the tab!
1 2 3 4 5
comments
print report bad tab
4 comments total. Showing first comments.
+2 reply
strat1234567890 41 Jan 11, 2007 06:38 AM

Part I: [Guitar II]
"...Shadow..."
E)----------------------------------------|
B)----------------------------------------|
G)----------------------------------------|
D)----------------------------------------| (x4)
A)----------------------------------------|
D)-0--12--0-10h12-0-13p12-0-10h12-0-10h12-|
2:07
Part II: [guitar II]
"...Shadow..."
E)----------------------------------------|
B)----------------------------------------|
G)----------------------------------------|
D)----------------------------------------| (x3)
A)-0--12--0-10h12-0-13p12-0-10h12-0-10h12-|
D)-0--12--0-10h12-0-13p12-0-10h12-0-10h12-|
"...My scabs again."


The 10h12 at the end of both of these parts (along with all other corresponding parts of the song should be 8h10. Other than that, looks pretty good to me.

+1 reply
Root Beer 187 Jan 28, 2007 02:15 PM

Yeah, you're right, I must not have noticed that... Good ear!

-1 reply
Rico16135 10 Feb 06, 2007 06:52 PM

this tab is worthless... did you actually listen to the cd when you tabbed this out?

guest
You may want to rate the tab now too:
select rating
Wanna post a correction for this tab? Suggest correction