Oops, an error
Loading. Please wait.

Aenema Bass Tab

version 1
version 1

Whole song

Interactive

23,007 views 108 this week
5 commentsread comments
1 2 3 4 5
x 12
add to favorites
launch autoscroll
font size
0
reset
guitar tuner
×
Best way to learn
"Aenema"
Autoscroll
slow
fast
+/-
esc
set tempo
stop
Gtr I (D A D G) - 'Untitled'

[Intro]                                          [Verse]
  Q.=120
                                                    E5
 12/8
                     Gtr I
                                                                        PM--|
  Wx6                E E E E E E E E E Q.    4x     E  E  E E E E E E E E E E
G|----------------||--------------------------||-||--4-----4-------4-----2------|
D|----------------||o-----2p0----------------o||-||o-2p(0)-2p0h2p0-2p0h2---4-0--|
A|----------------||o------------------------o||-||o----------------------------|
E|----------------||--2p0-----2p0-2p0h2-------||-||-----------------------------|


                              G5
                      PM--|
  E  E  E E E E E E E E E E   E  E  E E E E E E E E E E
G|-4-----4-------4-----2-----|-7-----7-------7-----------|
D|-2p(0)-2p0h2p0-2p0h2---4-0-|-5p(0)-5p0h5p0-5p0h5p0h5p0-|
A|---------------------------|---------------------------|
E|---------------------------|---------------------------|


  E E E E E E E E E E E E
G|-7---7-------7---7---------||
D|-5p0-5p0h5p0-5-0-5p0h4p0--o||
A|--------------------------o||
E|---------------------------||


  E E E E E E E E E E E E   E E E E E E E E E E E E   E E E E E E E E E E E E
G|-------------------------|-------------------------|--------------------------|
D|-------------------------|-------------------------|--------------------------|
A|-------------------0-----|-------------------------|--------------------------|
E|-2p0-2p0-2p0-2p0-2---2-0-|-2p0-2p0-2p0-2p0-2p0-4p0-|-5p0-5p0-5p0-5p0-5p0-5p0--|


  E E E E E E E E E E E E   E E E E E E E E E E E E   E E E E E E E E E E E E
G|-------------------------|-------------------------|--------------------------|
D|-------------------------|-------------------------|--------------------------|
A|-------------------------|-------------------------|--------------------------|
E|-5p0-5p0-5p0-5p0-5p0-5p0-|-2p0-2p0-2p0-2p0h2p0h2p0-|-2p0-2p0-2p0-2p0-2p0-4p0--|


  E E E E E E E E E E E E    E E  E  E  E  E  E  E  E  E  E  E
G|-------------------------|------------------------------------||
D|-------------------------|------------------------------------||
A|-------------------------|------------------------------------||
E|-5p0-5p0-5p0-5p0-5p0-5p0-|-10p0-10-10-10-10-12-12-12-12-12-12-||


[Chorus]
    $                                                               To Coda
    Q  E E E E Q  E E E E   Q  E E E E E E E E E E   Q  E E E E Q  E E E E
G||------------------------|------------------------|-------------------------|
D||o-----------------------|------------------------|-------------------------|
A||o-----------------------|------------------------|-------------------------|
E||--2--2-x-x-x-2--2-x-x-x-|-2--2-x-x-x-5-5-5-0-0-0-|-2--2-x-x-x-2--2-x-x-x---|


  1.                        2.
  Q  E E E E E E E E E E     Q  E E E E  E  E  E E E E
G|-------------------------||---------------------------|
D|------------------------o||---------------------------|
A|------------------------o||---------------------------|
E|-2--2-x-x-x-3-3-3-0-0-0--||-2--2-x-x-5-10-10-10-0-0-0-|


    E E E q  E E E E q  E   4x
G||--------------------------||
D||o------------------------o||
A||o-0-0---0--0-0-0---0--0--o||
E||--------------------------||


[Verse]
    E E E E E E E E E E E E   E E E E E E E E E E E E
G||--------------------------|-------------------------|
D||o-------0h2p0-------------|-------0h2p0-------------|
A||o-------------------0-----|-------------------------|
E||--2p0h2-------2p0h2---4p0-|-2p0h2-------2p0h2p0-4p0-|


  E E E E E E E E E E E E   E E E E E E E E E E E E
G|-------------------------|----------------------------||
D|-------0h5p0-------------|-------0h5p0---------------o||
A|-------------------------|-------------------0-------o||
E|-5p0h5-------5p0h5p0-5p0-|-5p0h5-------5p0h5---5p0----||


  E E E E E E E E E E E E   E E E E E E E E E E E E   E E E E E E E E E E E E
G|-------------------------|-------------------------|--------------------------|
D|-------------------------|-------------------------|--------------------------|
A|-------------------0-----|-------------------------|--------------------------|
E|-2p0-2p0-2p0-2p0-2---2p0-|-2p0-2p0-2p0-2p0-2p0-4p0-|-5p0-5p0-5p0-5p0-5p0-5p0--|


  E E E E E E E E E E E  E   E E E E E E E E E E E E
G|--------------------------|-------------------------|
D|--------------------------|-----------------2-2-----|
A|--------------------------|-------------------------|
E|-5p0-5p0-5p0-5p0-5-5-5s12-|-2p0-2p0h2p0-2p0-----2p0-|


  E E E E E E E E E E E E    E  E  E  E  E  E  E  E  E  E  E  E
G|-------------------------|--------------------------------------|
D|-----2p0---------2p0-----|--------------------------------------|
A|-------------------------|-10h12-10----------10h12-10-----------|
E|-2p0-----2p0-2p0-----4p0-|----------10-10-10----------10-10-10\-|


                D.S. al Coda
  E E E Q  +E   E E E E E E
G|-7---7-7--(7)\--------------||
D|-5p0-5-5--(5)\-7-7-7-7-7-7--||
A|---------------5-5-5-5-5-5--||
E|----------------------------||


  &
  Q  E E E E  E  E  E  E  E  E     E E E E E E  E  E  E  E  E  E
G|------------------------------||---------------------------------|
D|------------------------------||o--------------------------------|
A|------------------------------||o--------------------------------|
E|-2--2-x-x-5S10-10-10-12-12-12-||--0-0-0-0-0-0-10-10-10-12-12-12\-|


 1.,2.,3.
  E E E E E E  E  E  E  E  E  E
G|----------------------------------||
D|---------------------------------o||
A|---------------------------------o||
E|-2-2-2-2-2-2S10-10-12-12-12-12\---||


    4.
    E E E E E E E E E E E E  4x
G||---------------------------||-|
D||o-------------------------o||-|
A||o-------------------------o||-|
E||--2p0h2p0h2p0h2p0h2p0h2p0--||-|


[Bridge]
    E E E E E E E E E E E E  4x     E E E E E E E E E E E E  8x
G||---------------------------||-||---------------------------||
D||o-------------------------o||-||o-------------------------o||
A||o-------------------------o||-||o-------------------------o||
E||--2p0-2p0h2p0-2p0-2-0h2p0--||-||--2p0-2p0h2p0-2p0-2-0h2p0--||


        |-------3-------| |-------3-------|
        E E E E E E E E E E E E E E E E E E  4x
G||--||---------------------------------------||-|
D||o-||o-------------------------------------o||-|
A||o-||o-------------------------------------o||-|
E||--||--2-2-2-2-2-2-2-2-2-2-2-2-2-2-2-2-2-2--||-|


    |-------3-------| |-------3-------|
    E E E E E E E E E E E E E E E E E E  4x
G||---------------------------------------||----||
D||o-------------------------------------o||---o||
A||o-------------------------------------o||---o||
E||--5-5-5-5-5-5-5-5-5-5-5-5-5-5-5-5-5-5--||----||


    |-------3-------| |-------3-------|
    E E E E E E E E E E E E E E E E E E  4x
G||---------------------------------------||
D||o-------------------------------------o||
A||o-------------------------------------o||
E||--2-2-2-2-2-2-2-2-2-2-2-2-2-2-2-2-2-2--||


      |-------3-------| |-------3-------|
      E E E E E E E E E E E E E E E E E E  3x
G|-||---------------------------------------||
D|-||o-------------------------------------o||
A|-||o-------------------------------------o||
E|-||--5-5-5-5-5-5-5-5-5-5-5-5-5-5-5-5-5-5--||


                            Slide Guitar Solo
  Q  E E E E E E E E E E     E E E q  E E E E q  E  3x E E E q  E E E E E E E
G|------------------------||-------------------------||-------------------------|
D|------------------------||o-----------------------o||--------------------0h2--|
A|------------------5-5-5-||o-----------------------o||----------------0h2------|
E|-5--5-5-5-5-5-5-5-------||--2-2---2--2-2-2---2--2--||-2-2---2--2-2-2----------|


    E E E q  E E E E Q  E  3x E E E q  E E E E E E E   E E E q  E E E E q  E
G||--7-7---7--7-7-7---7--7--||-7-7---7--7-------------|-----------------------|
D||o-5-5---5--5-5-5---5--5-o||-5-5---5--5-2p0-2p0-----|-----------------------|
A||o-----------------------o||--------------------2p0-|-----------------------|
E||-------------------------||------------------------|-2-2---2--2-5p2---2--2-|


  E E E q  E E E E q  E   E E E q  E E E E q  E   E E E Q  E E E E Q  E
G|-----------------------|-----------------------|------------------------|
D|-----------------------|-----------------------|------------------------|
A|-----------------------|-----------------------|------------------------|
E|-5p2---2--2-5p2---2--2-|-5p2---2--2-5p2---2--2-|-0h2---2--2-5p2---2--2--|


  E E E Q  E E E E Q  E   E E E Q  E E E E Q  E   E E E Q  E E E E Q  E
G|------------7-7---7--7-|-7-7---7--7-7-7---7--7-|-7-7-7-7--7-7-7-7-7--7--|
D|-5-5---5--5-5-5---5--5-|-5-5---5--5-5-5---5--5-|-5-5-5-5--5-5-5-5-5--5--|
A|-----------------------|-----------------------|------------------------|
E|-----------------------|-----------------------|------------------------|


  E E E Q  E E E E E E E     E E E E E E E E E E E E
G|-7-7-7-7--7-------------||--------------------------|
D|-5-5-5-5--5-2h4-2p0-----||o-------------------------|
A|--------------------2p0-||o-------------------------|
E|------------------------||--2-2-2-2-2-2-2-2-2-2-2-2-|


   E E E E E E E E E E E E
G|---------------------------||
D|--------------------------o||
A|--------------------------o||
E|-2-2-2-2-2-2-2-2-2-2-2-2---||

[Bridge]

    |-------3-------| |-------3-------|   |-------3-------| |-------3-------|
    E E E E E E E E E E E E E E E E E E   E E E E E E E E E E E E E E E E E E
G||--------------------------------------|--------------------------------------|
D||o-------------------------------------|--------------------------------------|
A||o-------------------------------------|--------------------------------------|
E||--5-5-5-5-5-5-5-5-5-5-5-5-5-5-5-5-5-5-|-5-5-5-5-5-5-5-5-5-5-5-5-5-5-5-5-5-5--|


  |-------3-------| |-------3-------|   |-------3-------| |-------3-------|
  E E E E E E E E E E E E E E E E E E   E E E E E E E E E E E E E E E E E E
G|-------------------------------------|---------------------------------------|
D|-------------------------------------|---------------------------------------|
A|-------------------------------------|---------------------------------------|
E|-5-5-5-5-5-5-5-5-5-5-5-5-5-5-5-5-5-5-|-5-5-5-5-5-5-5-5-5-5-5-5-5-5-5-5-5-5---|


  E E E E E E E E E E E E   E E E E E E E E E E E E   E E E E E E E E E E E E
G|-------------------------|-------------------------|--------------------------|
D|-------------------------|-------------------------|--------------------------|
A|-------------------------|-------------------------|--------------------------|
E|-2-2-2-2-2-2-2-2-2-2-2-2-|-2-2-2-2-2-2-2-2-2-2-2-2-|-2-2-2-2-2-2-2-2-2-2-2-2--|


                                        |---3---|               |---3---|
  E E E E E E E E E E E E  3x Q.   Q  E Q.  Q.  Q.    Q.   Q  E Q.  Q.  Q.
G|--------------------------||------7--7-7---7---7---|------------------------|
D|-------------------------o||------5--5-5---5---5---|-7----7--7-7---7---7----|
A|-------------------------o||-----------------------|------------------------|
E|-2-2-2-2-2-2-2-2-2-2-2-2--||-0---------------------|------------------------|


                 |----3----|
    Q.    Q   E  Q.   Q.   Q.
G|------------------------------|
D|-/10----10--10-10---10---10---|
A|------------------------------|
E|------------------------------|


            |---3---|               |---3---|
  Q.   Q  E Q.  Q.  Q.    Q.   Q  E Q.  Q.  Q.
G|-----------------------|------------------------|
D|-9----9--9-9---9---9---|-9----9--9-9---9---9----|
A|-----------------------|------------------------|
E|-----------------------|------------------------|


            |---3---|               |---3---|                 |---3---|
  Q.   Q  E Q.  Q.  Q.    Q.   Q  E Q.  Q.  Q.    a Q.   Q  E Q.  Q.  Q.
G|-----------------------|-----------------------|-------------------------|
D|-7----7--7-7---7---7---|-5----5--5-5---5---5---|-5s7----7--7-7---7---7---|
A|-----------------------|-----------------------|-------------------------|
E|-----------------------|-----------------------|-------------------------|


  Q.   Q  E Q  E +E  E E   Q.   Q  E Q  E +E  E E
G|------------------------|------------------------|
D|-9----9--9-9--9-(9)-9-9-|-7----7--7-7--7-(7)-7-7-|
A|------------------------|------------------------|
E|------------------------|------------------------|


   Q.    Q   E  Q   E  +E   E  E
G|---------------------------------|
D|-10----10--10-10--10-(10)-10-10--|
A|---------------------------------|
E|---------------------------------|


  Q.   Q  E a  Q   E  +E   E  E
G|-------------------------------|
D|-9----9--9-9s10--10-(10)-10-10-|
A|-------------------------------|
E|-------------------------------|


  Q.   Q  E Q  E +E  E E   Q.   Q  E Q  E +E  E E
G|------------------------|------------------------|
D|-9----9--9-9--9-(9)-9-9-|-7----7--7-7--7-(7)-7-7-|
A|------------------------|------------------------|
E|------------------------|------------------------|


  Q.   Q  E Q  E +E  E E   H.      +Q.   +Q.
G|------------------------|----------------------|
D|-5----5--5-5--5-(5)-5-5-|-4-------(4)---(4)\---|
A|------------------------|----------------------|
E|------------------------|----------------------|


[Outro]
    |-------3-------| |-------3-------|
    E E E E E E E E E E E E E E E E E E
G||--------------------------------------|
D||o-------------------------------------|
A||o-------------------------------------|
E||--2-2-2-2-2-2-2-2-2-0-0-0-0-0-0-0-0-0-|


  |-------3-------| |-------3-------|
  E E E E E E E E E E E E E E E E E E
G|-------------------------------------|
D|-------------------------------------|
A|-------------------------------------|
E|-5-5-5-5-5-5-5-5-5-0-0-0-0-0-0-0-0-0-|


            |---3---|               |---3---|
  Q.   Q  E Q.  Q.  Q.    Q.   Q  E Q.  Q.  Q.   4x
G|-----------------------|------------------------||
D|-----------9---9---9---|-----------9---9---9---o||
A|-9---------9---9---9---|-9---------9---9---9---o||
E|-9----9--9-9---9---9---|-9----9--9-9---9---9----||


            |---3---|               |---3---|
  Q.   Q  E Q.  Q.  Q.    Q.   Q  E Q.  Q.  Q.
G|-----------------------|-----------------------|
D|-----------9---9---9---|-----------9---9---9---|
A|-9---------9---9---9---|-9---------9---9---9---|
E|-9----9--9-9---9---9---|-9----9--9-9---9---9---|


    H.      E E E S S S S S S  8x
G||-----------------------------||
D||o-6-------------------------o||
A||o-5-------2-----------------o||
E||------------2---x-x-x-x-x-x--||


    Q.   E E E Q.   Q.    3x W.              W
G||------------------------||---------------|------*|
D||o-6----5-----6----6----o||-6-------------|------*|
A||o-5----6-5h7-5----5----o||-5-------------|------*|
E||------------------------||---------------|------*|



************************************

| h    Hammer-on
| p    Pull-off
| x    Dead note
| \    Slide down
| /    Slide up
| (n)  Ghost note
| *    the end
| o    reprise
| s    slide

************************************
Suggest correction
comments
print report bad tab
5 comments total. Showing first comments.
0 reply
punk-man12 31 Oct 15, 2006 11:00 AM

you spelt the title wrong.

-1 reply
CorBe 350 Nov 25, 2006 08:13 PM

YOu were the only person who got it spelt sorta right At least you used a I instead of a E
AENIMA

By the way awsome tab missing one small part before the @nd chorus though. Or maybe Im retarded

0 reply
xmarienx 115 Sep 13, 2008 11:26 AM

lol idk

guest
You may want to rate the tab now too:
select rating
Wanna post a correction for this tab? Suggest correction