Oops, an error
Loading. Please wait.

Aenema Tab

version 1
version 1

Whole song

Interactive

92,339 views 165 this week
11 commentsread comments
1 2 3 4 5
x 38
add to favorites
launch autoscroll
font size
0
reset
how to read this tab
guitar tuner
×
Best way to learn
"Aenema"
Autoscroll
slow
fast
+/-
esc
set tempo
stop
Tuning: D A D G B E

[Intro] (8x)
e|-----------------------|
B|-----------------------|
G|--------0--------------|
D|-2p0h2--0---2p0-2p0h2--|
A|-2p0h2------2p0-2p0h2--|
E|-2p0h2------2p0-2p0h2--|

  [Verse](8x)
e|--------------------------------|
B|--x----x--x--x----x----x--x--x--|
G|--x----x--x--x----x----x--x--x--|
D|--x----x--x--x----x----x--x--x--|
A|--------------------------------|
E|--------------------------------|

  (This next part is p.m. all through out)
  "bull -   "                 "shit -   "
e|---------------------------|------------------------------|
B|---------------------------|----------0------------0------|
G|---------------------------|------------------------------|
D|---------------------------|------------------------------|
A|--2p0-2p0-2p0-2p0-2p0-2p0--|--2p0--2-----2p0-2p0-2----4p2-|
E|--2p0-2p0-2p0-2p0-2p0-2p0--|--2p0--2-----2p0-2p0-2----4p2-|

  "three -     "               "ring____  "
e|----------------------------|------------------------------|
B|---------0------------------|----------------------0--0----|
G|---------0------------------|--------0-------------0--0----|
D|----------------------0-----|------------------------------|
A|--5p0-5----5p0-5p0-5----5p0-|--5p0-5----5p0-5p0-5----------|
E|--5p0-5----5p0-5p0-5----5p0-|--5p0-5----5p0-5p0-5----------|

  "cir -     "                 "cus -     "
e|-------0------------0-------|--------0-------------0-------|
B|-------0------------0-------|--------0-------------0-------|
G|----------------------------|------------------------------|
D|-2-0-2----------------------|------------------------------|
A|---------2p0-2p0-2-----2p0--|--2p0-2----2p0-2p0-2-----4p0--|
E|---------2p0-2p0-2-----2p0--|--2p0-2----2p0-2p0-2-----4p0--|

  "side -     "                 "show___of___"
e|-----------------------------|--------------0--------|
B|-----------------------------|--------------0----3---|
G|--------0-------------0------|--5----5p0h5--0----2---|
D|--------0-------------0------|--5----5p0h5--0----0---|
A|-5p0-5-----5p0-5p0-5----5p0--|--3----3p0h3--2----0---|
E|-5p0-5-----5p0-5p0-5----5p0--|-------------------0---|

  [Chorus]
e|-----------------------------------------------------------|
B|-----------------------------------------------------------|
G|---4----4-----------4----4---------4---4-------------7---2-|
D|---2----2--x--x--x--2----2--x-x-x--2---2---x--x--x---5---0-|
A|---2----2--x--x--x--2----2--x-x-x--2---2---x--x--x---5---0-|
E|---2----2--x--x--x--2----2--x-x-x--2---2---x--x--x---5---0-|

e|-----------------------------------------------------------|
B|-----------------------------------------------------------|
G|--4---4----------4---4----------4---4----------5--5--2-2-2-|
D|--2---2--x--x--x-2---2-x--x--x--2---2--x--x--x-3--3--0-0-0-|
A|--2---2--x--x--x-2---2-x--x--x--2---2--x--x--x-3--3--0-0-0-|
E|--2---2--x--x--x-2---2-x--x--x--2---2--x--x--x-3--3--0-0-0-|

e|-----------------------------------------------------------|
B|-----------------------------------------------------------|
G|-4---4-----------4---4-----------4---4----------7---2-2-2--|
D|-2---2--x--x--x--2---2--x--x--x--2---2--x--x--x-5---0-0-0--|
A|-2---2--x--x--x--2---2--x--x--x--2---2--x--x--x-5---0-0-0--|
E|-2---2--x--x--x--2---2--x--x--x--2---2--x--x--x-5---0-0-0--|

e|-----------------------------------------------------------|
B|-------------------------------------------------3--3--3---|
G|-4---4----------4---4----------4---4-------------2--2--2---|
D|-2---2--x--x--x-2---2--x--x--x-2---2--x--x--x/10-0--0--0---|
A|-2---2--x--x--x-2---2--x--x--x-2---2--x--x--x/10-0--0--0---|
E|-2---2--x--x--x-2---2--x--x--x-2---2--x--x--x/10-0--0--0---|

e|------------------------------------------------|
B|------------------------------------------------|
G|------------------------------------------------|
D|------------------------------------------------|
A|--2--(2)-----/5---0---2--------(2)---/5----0----|
E|--2--(2)-----/5---0---2--------(2)---/5----0----|

[Interlude]
(w/Flanger)
e|-------------------------------|---------------------------|
B|-------------------------------|---------------------15\-3-|
G|------2--2--2------------------|-4-4-4-4(4)/12-12-12-15\-2-|
D|-0----0--0--0--10-10-10--------|-2-2-2-2(2)/12-12-12-15\-0-|
A|-0----0--0--0--10-10-10--12----|-2-2-2-2(2)/12-12-12-15\-0-|
E|-0----0--0--0--10-10-10----12--|-2-2-2-2(2)/12-12-12-15\-0-|

e|---------------------------|-0-0-0-0-----------------------|
B|-3------3-3-3--------------|-0-0-0-0-----------------------|
G|-2------2-2-2--------------|-4-4-4-4-----------------------|
D|-0--0---0-0-0-10-10-10-----|-2-2-2-2--2/10-10-10-12--------|
A|-0--0---0-0-0-10-10-10-12\-|-2-2-2-2--2/10-10-10-12--------|
E|-0--0---0-0-0-10-10-10-----|-2-2-2-2--2/10-10-10-12--------|

e|----------------------------|-0--0-0-0-0/------------------|
B|-3--3-3-3-3-----------------|-0--0-0-0-0/-13-13-13-15-15-15|
G|-2--2-2-2-2-12-12-12--------|-1--1-1-1-1/-12-12-12-14-14-14|
D|-0--0-0-0-0-12-12-12-12\----|-2--2-2-2-2/-10-10-10-12-12-12|
A|-0--0-0-0-0-12-12-12-12\----|-2--2-2-2-2/------------------|
E|-0--0-0-0-0-12-12-12-12|----|-2--2-2-2-2/------------------|

                                    (Let ring through out)
e|----------------------------------0-------------------|
B|-15-15-15-15-15-13-13-13-15-13\---0-------------------|
G|-14-14-14-14-14-12-12-12-14-12\---4-------------------|
D|-12-12-12-12-12-10-10-10-12-10\---2-------------------|
A|----------------------------------2-------------------|
E|----------------------------------2-------------------|

  starting with "some say a comet___"
e|-----------------------------------------------------------|
B|-----------------------------------------------------------|
G|-----------------------------------------------------------|
D|9-----------7----7----10---------9-------9-------7------5--|
A|-----------------------------------------------------------|
E|-----------------------------------------------------------|

  "dumb founded dipshits_____"
e|-------------------------------------------|
B|-------------------------------------------|
G|---4---------------------------------------|
D|---------5---(5)\---------2----------------|
A|--------------------------2----------------|
E|-------------------------------------------|

  (2x)
e|-------------------------------------------|
B|-------------------------------------------|
G|-------------------------------------------|
D|--2/--5-----------------------5\2----------|
A|--2/--5-----------------------5\2----------|            
E|--2/--5-----------------------5\2----------|

  before solo                      |"it ought to be___"
e|-------------------------------------------------------|
B|-------------------------------------------------------|
G|--------(5)--------------------------------------------|
D|-------2/5---------------------------------------------|
A|-------2/5-------------------------3////5--------------|
E|-------2/5---------------------------------------------|

[Solo]
e|--------------------------------------------------------|
B|--------------------------------------------------------|
G|--------------------------------------------------------|
D|------------14\-------------14-------------14--(14)\12--|
A|12/14-12/14-----12/14-12/14----12/14-12/14--------------|
E|--------------------------------------------------------|
                             let ring-------|
e|--------------------------|-----------------------------|
B|--------------------------|-----------------------------|
G|--------------------------|-12----------------12----12--|
D|-----------14---14\11-----|-12----------------------12--|
A|-12/-12/14----------------|-----------------------------|
E|--------------------------|-----------------------------|

e|-----------------------------------|
B|---------------------------12\-----|
G|-(12)\------------12---------------|
D|-(12)\-----------------12----------|
A|--------12---12--------------------|
E|-----------------------------------|

e|-----------------------------------------------------------|
B|-----------------------------------------------------------|
G|-----------------------------------------------------------|
D|-------------14\----------14---14-(14)\---14--14--14-------|
A|-12/14-12/14----12/14--14-----------------------------14---|
E|-----------------------------------------------------------|

e|-----------------------------------------------------------|
B|-----------------------------------12---12----(12)---------|
G|-12---12/9--14---14\---------------12---12----(12)---------|
D|----------------------12----12--12-------------------------|
A|-----------------------------------------------------------|
E|-----------------------------------------------------------|

e|--------------------------------------12-------(12)\--|
B|----12\---------12\---12\---12\-------12-------(12)\--|
G|----12\---------12\---12\---12\-------12-------(12)\--|
D|--------12-(12)\12\---12\---12\-----------------------|
A|------------------------------------------------------|
E|------------------------------------------------------|

  "Learn to swim__"  Play the first two times. 
e|-----------------------------------------------------------|
B|-----------------------------------------------------------|
G|-----------------------------------------------------------|
D|-----------------------------------------------------------|
A|-2-2-2-2-2-2-2-2-2-2-2-2-2-2-2-2-2-2-2-2-2-2-2-2-2-2-2-2-2-|
E|-2-2-2-2-2-2-2-2-2-2-2-2-2-2-2-2-2-2-2-2-2-2-2-2-2-2-2-2-2-|

e|-----------------------------0-0-0-0-0-0---------|
B|-------------------------0-0-0-0-0-0-0-0---8-----|
G|-------------------------4-4-4-4-4-4-4-4/--7-----|
D|-------------------2-2-2-2-2-2-2-2-2-2-2/--5-----|
A|-2-2-2-2-2-2-2-2-2-2-2-2-2-2-2-2-2-2-2-2/--------|
E|-2-2-2-2-2-2-2-2-2-2-2-2-2-2-2-2-2-2-2-2/--------|

  Third part "Fuck your tatoos____"
e|-x-x-x-x-x-x-x-x-x-x-x-x-x-x-x-x-x-x-x-x-x-x-x-x-x-x-x-x-x-|
B|-x-x-x-x-x-x-x-x-x-x-x-x-x-x-x-x-x-x-x-x-x-x-x-x-x-x-x-x-x-|
G|-x-x-x-x-x-x-x-x-x-x-x-x-x-x-x-x-x-x-x-x-x-x-x-x-x-x-x-x-x-|
D|-----------------------------------------------------------|
A|-----------------------------------------------------------|
E|-----------------------------------------------------------|

  Play the same part as the first two and then we move on to 
  "fuck smiley glad hands___"
e|----------------------------------------------------------|
B|---8--------8------------8-----8------------8-8-8-8-8-8-/-|
G|---7---7--7-7------------7-----7--7-----7---7-7-7-7-7-7-/-|
D|---5---5--5-5----------5-5--5--5--5-----5---5-5-5-5-5-5-/-|
A|---5---5--5------------5----5-----5-----5---5-5-5-5-5-5-/-|
E|---5---5--5------------5----5-----------------------------|

  "Fuck these dysfunctional___"
e|-----------------------------------------------------------|
B|-20-20-20-20-20-20-20-20-20-20-0--8-8-8-8-8/20-20-20-20-20-|
G|-19-19-19-19-19-19-19-19-19-19-0--7-7-7-7-7/19-19-19-19-19-|
D|-17-17-17-17-17-17-17-17-17-17-0--5-5-5-5-5/17-17-17-17-17-|
A|-----------------------------------------------------------|
E|-----------------------------------------------------------|

e|-----------------------------------------------------------|
B|-5--5/-17-17-17-17-17\-5-5-5-5-5/17-17-17-17-17------------|
G|-4--4/-16-16-16-16-16\-4-4-4-4-4/16-16-16-16-16------------|
D|-2--2------------------2-2-2-2-2------------------5--2p0---|
A|-2--2------------------2-2-2-2-2------------------5--2p0---|
E|-2--2------------------2-2-2-2-2------------------5--2p0---|

                                  "oh________cuz I'm praying"
e|-----------------------------------------------------------|
B|-5/17-17-17-17-----------5-5-5-5--5/17--17-17\8------------|
G|-4/16-16-16-16-----------4-4-4-4--4/16--16-16\7------------|
D|-2--------------0--0--0--2-2-2-2--2-----------7------------|
A|-2--------------0--0--0--2-2-2-2--2-----------5------------|
E|-2-----------------------2-2-2-2--2------------------------|

  "mom, please flush it all away____"
e|-----------------------------------------------------------|
B|-----------------------------------------------------------|
G|-----------------------------------------------------------|
D|-----------------------------------------------------------|
A|--14~~~~~14--14-14--14--14/12-12~~~~12--12-12--12--12-12-12|
E|-----------------------------------------------------------|

  "see it go right in and down___"
e|-----------------------------------------------------------|
B|-----------------------------------------------------------|
G|-----------------------------------------------------------|
D|-10~~~~~~~10--10-10------10-10-10--9-9~~~~~~9--9-9^-9^-9^--|
A|-----------------------------------------------------------|
E|-----------------------------------------------------------|

                                        "away______"
e|-----------------------------------------------------------|
B|-----------------------------------------------------------|
G|-----------------------------4--------4-4-4-4-4------------|
D|-9\7--7---7-7---7----7--7--5-----5-5--5-5-5-5-4------------|
A|-----------------------------------------------------------|
E|-----------------------------------------------------------|

[Outro]
 (play 3 times)
e|-----------------------------------------------------------|
B|-----------------------------------------12\---------------|
G|-----------------------------------------11\---------------|
D|-2--2--2p0-0--0-0-0--5--5---0--0-0--9-9-9-9\--0--0--0--9---|
A|-2--2--2p0-0--0-0-0--5--5---0--0-0--9-9-9-9\--0--0--0--9---|
E|-2--2--2p0-0--0-0-0--5--5---0--0-0--9-9-9-9\--0--0--0--9---|

(continued)
e|-----------------------------|
B|-----------12--12------------|
G|-----------11--11------------|
D|---9--9--9--9---9--0--0--0---|
A|---9--9--9--9---9--0--0--0---|
E|---9--9--9--9---9--0--0--0---|

  "my friend____"             With bar
e|---------------------------------------------------|
B|----5------5------3--3---3/8--8~~~~8\-3----3--3--3-|
G|----4------4------2--2---2/7--7~~~~7\-2----2--2--2-|
D|----2------2------0--0---0/5--5~~~~5\-0----0--0--0-|
A|----2------2------0--0---0/5--5~~~~5\-0----0--0--0-|
E|----2------2------0--0---0/5--5~~~~5\-0----0--0--0-|

(4x)
e|------------------------------------|
B|-----------------12\----------------|
G|-----------------11\----------------|
D|-9-----9--9--9----9\---0--0--0------|
A|-9-----9--9--9----9\---0--0--0------|
E|-9-----9--9--9----9\---0--0--0------|

              (8x)                (3x)
e|------------------------|---------------------|-----------|
B|------------------------|---------------------|-----------|
G|------------------------|---2--------2--2---2-|-2---------|
D|--9-----9------9^-------|---6--------6--6---6-|-6---------|
A|--9-----9------9^-------|---5-----5-----5---5-|-5---------|
E|--9-----9------9^-------|---------------------|-----------|


************************************

| h    Hammer-on
| p    Pull-off
| x    Dead note
| (n)  Ghost note
| /    Slide up
| \    Slide down
| ~    Vibrato

************************************
Suggest correction
comments
print report bad tab
11 comments total. Showing first comments.
0 reply
nique 0 Apr 18, 2002 08:00 PM

This TaB is okay, but u made a few mistakes. Nice try...

+3 reply
BlackReaper123 10 Oct 10, 2006 11:13 AM

i luv this song

0 reply
hookerkiller 10 Feb 11, 2007 11:06 AM

Good tab... the comments in there are well thought out

guest
You may want to rate the tab now too:
select rating
Wanna post a correction for this tab? Suggest correction