Oops, an error
Loading. Please wait.

Aenima album tab

version 2
version 2

Album

Interactive

by Tool
28,212 views 48 this week
13 commentsread comments
1 2 3 4 5
x 7
add to favorites
×
Save as Personal and add changes to this tab that will be seen only by you. Learn more ›
×
You can save this tab as Personal to edit and correct it or add notes. All changes will be seen only by you. Learn more »
launch autoscroll
font size
0
reset
how to read this tab
guitar tuner
backing track
0:00
0:00
edit
Autoscroll
slow
fast
+/-
esc
set tempo
stop
I'm pretty sure these are correct.

nh - natural harmonic
 ph - pinch harmonic
pm - palm mute
 x - muted string
h - hammer on
 p - pull off
\ - slide down
 // - slide up
b - bend
 ~~ - vibrato
<7> - natural harmonic
 x/// - pick scrape (directions same as slide)

~~~~~~~~~~~~~~~~~~~~~~~~~~~~~~~~~~~~~~~~~~~~~~~~~~~~~~~~~~~~~~~~~~~~~
STINKFIST
*sampled intro*

(distortion, flange, delay)

*feedback*

                     x7
e-----|-----------------|
b-----|-----------------|
g-----|-----------------|
d-----|-----------------|
a-----|---5-------------|
d--2--|--------2~~------|

(delay off)
               x8                x7
e-----------------|-----------------|------------------|
b-----------------|-----------------|------------------|
g-----------------|-----------------|------------------|
d-----------------|-----------------|------------------|
a--5--------------|--5--------------|--5---------------|
d------2-2--2-2---|------2-2--------|------2-2--2-2----|
       pm- - -|          pm-               pm- - ------|

e--------------------------------------------------------------|
b--0--------0-------0--------------0-------0------------0------|
g--0--------0-------0--------------0-------0------------0------|
d--0---2----0--2----0--2---0--2----0--2----0--2---0--2--0--2---|
a------2-------2-------2---0--2-------2-------2---0--2-----2---|
d------2-------2-------2---0--2-------2-------2---0--2-----2---|

e---------------------------------------------|
b-------------------------3-------------------|
g-------------------------2-------------------|
d--2--2--/10--10----0-----0-----0---x-x--2h3--| x3
a--2--2--/10--10----0-----0-----0---x-x--2h3--|
d--2--2--/10--10----0-----0-----0---x-x--2h3--|

e------------------------|
b------------------------|
g------------------------|
d--2--2--/10--10---------|
a--2--2--/10--10---------|
d--2--2--/10--10----12b--|

(flange and delay)
                     x7
e-----|-----------------|
b-----|-----------------|
g-----|-----------------|
d-----|-----------------|
a-----|---5-------------|
d--2--|--------2~~------|

(delay off)

               x8                x7
e-----------------|-----------------|-----------------|
b-----------------|-----------------|-----------------|
g-----------------|-----------------|-----------------|
d-----------------|-----------------|-----------------|
a-----------------|--5--------------|--5b-------------|
d--x--2-2---2-2---|------2-2--2-2---|-----------------|
      pm - - -|

e--------------------------------------------------------------|
b--0--------0-------0--------------0-------0------------0------|
g--0--------0-------0--------------0-------0------------0------|
d--0---2----0--2----0--2---0--2----0--2----0--2---0--2--0--2---|
a------2-------2-------2---0--2-------2-------2---0--2-----2---|
d------2-------2-------2---0--2-------2-------2---0--2-----2---|

e---------------------------------------------|
b-------------------------3-------------------|
g-------------------------2-------------------|
d--2--2--/10--10----0-----0-----0---x-x--2h3--| x3
a--2--2--/10--10----0-----0-----0---x-x--2h3--|
d--2--2--/10--10----0-----0-----0---x-x--2h3--|

e------------------------|
b------------------------|
g------------------------|
d--2--2--/10--10---------|
a--2--2--/10--10---------|
d--2--2--/10--10----12b--|

(delay on)

e----------------------------|
b----------------------------|
g--2-------------------------|
d--2----2--------------------|
a--0----0--------7-77-5b-----|
d-------3----3/5-------------|

*light feedback, followed by a pickscrap on the high D string*

*rest for 6 bars*

(flange and delay)

Solo

*random natural harmonics near pickups on E/B/G strings*

e---------------------------------|
b---------------------------------|
g---------------------------------|
d-----14----14----14----14----14--| x6
a--17----17----17----17----17-----|
d---------------------------------|

*slide hand down fretboard*

*rest 2 bars*

e--x-x--x-x--x--|
b--x-x--x-x--x--|
g--x-x--x-x--x--| x2
d--x-x--x-x--x--|
a--x-x--x-x--x--|
d--x-x--x-x--x--|

*quick pickscrap on the high D string*

e---------------------------------|
b---------------------------------|
g---------------------------------|
d-----14----14----14----14----14--| x6
a--17----17----17----17----17-----|
d---------------------------------|

e---------------------------------------------------------------|
b---------------------------------------------------------------|
g---------------------------------------------------------------|
d-----------15-------15-----15-----15-----15---------15----15---|
a---19------------------19-----19-----19-----19---19----19------|
d---------------------------------------------------------------|

e---------------------------------|
b---------------------------------|
g---------------------------------|
d-----14----14----14----14----14--| x6
a--17----17----17----17----17-----|
d---------------------------------|

(flange and delay off)

e-----------------------------------------------------------|
b-----------------------------------------------------------|
d-----------------------------------------------------------|
d--2-2-2-2-2-22--2-2-2-2-2-22--2-2-2-2-2-22--2-2-2-2-2-2-2--|
a--2-2-2-2-2-22--2-2-2-2-2-22--2-2-2-2-2-22--2-2-2-2-2-2-2--|
d--2-2-2-2-2-22--2-2-2-2-2-22--2-2-2-2-2-22--2-2-2-2-2-2-2--|
  pm - - - - - - - - -  - - - - - - - - - -| (natural harm)

                                  x2
e-------------------------------------|--------------------------------------------|
b-------------------------------------|------15-15-15--15-15-15-15--15--15-15-15\--|
g-------------------------------------|------14-14-14--14-14-14-14--14--14-14-14\--|
d--14-14--14-14--16--14-14--14-14--0--|--12--12-12-12--12-12-12-12--12--12-12-12\--| (x2)
a--14-14--14-14--16--14-14--14-14--0--|--12----------------------------------------|
d--14-14--14-14--16--14-14--14-14--0--|--12----------------------------------------|

e---------------------------------------------|
b---------------------------------------------|
g---------------------------------------------|
d--12---12/14-14---14-14--11--2--2--2--2--2/--| x2
a--10---10/12-12---12-12--9---2--2--2--2--2/--|
d--10---10/12-12---12-12--9---2--2--2--2--2/--|

e----------------------------------------------|
b----------------------------------------------|
g----------------------------------------------|
d--12---12/14-14---14-14--11---9-----(9)--(9)--|
a--10---10/12-12---12-12--9----7-----(7)--(7)--|
d--10---10/12-12---12-12--9----7-----(7)--(7)--|

(light picking with flange)

e----------------------------------------------|
b--------------------------------------0---0---|
g--------------------------------------0---0---|
d--12---12/14-14---14-14--11---9-----9---9-----|
a--10---10/12-12---12-12--9----7-----7---7-----|
d--10---10/12-12---12-12--9----7-----7---7-----|

e------------------------------|
b------------------------------|
g------------------------------|
d--12---12/14-14---14-14--11---|
a--10---10/12-12---12-12--9----|
d--10---10/12-12---12-12--9----|

(hard picking, flange off)

e---------------------------------------------------------|
b--5----------5----------5------------8--8-8--10-10--7----|
g--4----------4----------4------------7--7-7--9--9---6----|
d--2--x--x-x--2--x--x-x--2--x-x--x-x--5--5-5-/7--7--4-----| x2
a--2--x--x-x--2--x--x-x--2--x-x--x-x--5--5-5-/7--7--4-----|
d--2--x--x-x--2--x--x-x--2--x-x--x-x--5--5-5--7--7---4----|

e---------------------------------------------|
b-------------------------3-------------------|
g-------------------------2-------------------|
d--2--2--/10--10----0-----0-----0---x-x--2h3--| x3
a--2--2--/10--10----0-----0-----0---x-x--2h3--|
d--2--2--/10--10----0-----0-----0---x-x--2h3--|

e------------------------|
b------------------------|
g------------------------|
d--2--2--/10--10---------|
a--2--2--/10--10---------|
d--2--2--/10--10----12b--|

*light feedback*

~~~~~~~~~~~~~~~~~~~~~~~~~~~~~~~~~~~~~~~~~~~~~~~~~~~~~~~~~~~~~~~~~~
EULOGY

(guitar 1)
e--------------------------------|
b--(pluck between the bridge-----|
g--and tail piece on a Les Paul)-
d--------------------------------| x36
a--x-x-x-x--x-x-x-x--x-xxx-x-x---|
d--------------------------------|

*guitar 2 starts on 32nd bar of guitar 1)

(guitar 2, faint)
                             x4
e-------------------------------|--------|
b-------------------------------|--------|
g-------------------------------|--------|
d-------------------------------|--2-----|
a-------------------------------|--2-----|
d--2-2-2-2--2-2-2-2--2-2-0000---|--2-----|

(one guitar)

*rest 3 bars*

(flange)

*lightly hit E5 chord*

(distortion)

e--------------|
b--------------|
g--------------|
d----2---------| x4
a----2---------|
d--0-2---------|

e-----------------------------|
b-----------------------------|
g-----------------------------|
d-----------------------------| x9
a-----------------------------|
d--2-2-2-2-x-xx-2-2--2-3-000--|
   pm - - - - - - - - - - - -|

e--------------------------|
b--------------------------|
g--------------------------|
d--------------------------|
a--------------------------|
d--2-2-2-2---2-2-2-2-------|
   pm - - - - - - -|

(flange off)

e--------------|
b--------------|
g--------------|
d--7--7-7-9----|
a--7--7-7-9----|
d--7--7-7-9----|

e--------------------------------------------------------------------------------|
b--------------------------------------------------------------------------------|
g--------------------------------------------------------------------------------|
d--0h2-2--0-0h2-2--0-0h2--0-5-5-5-5-x-9---0h2-2--0-0h2-2--0-0h2--0-7-7-7-7-x-9---| x3
a--0h2-2--0-0h2-2--0-0h2--0-5-5-5-5-x-9---0h2-2--0-0h2-2--0-0h2--0-7-7-7-7-x-9---|
d--0h2-2--0-0h2-2--0-0h2--0-5-5-5-5-x-9---0h2-2--0-0h2-2--0-0h2--0-7-7-7-7-x-9---|

e---------------------------------------------------------------------|
b-----------------------------------------------------------(flange)--|
g---------------------------------------------------------------------|
d--0h2-2--0-0h2-2--0-0h2--0-5-5-5-5-x-9---0h2-2--0-0h2-2--0--2-2-2----|
a--0h2-2--0-0h2-2--0-0h2--0-5-5-5-5-x-9---0h2-2--0-0h2-2--0--2-2-2----|
d--0h2-2--0-0h2-2--0-0h2--0-5-5-5-5-x-9---0h2-2--0-0h2-2--0--2-2-2----|

e------------------------------|
b------------------------------|
g------------------------------|
d------------------------------| x4
a------------------------------|
d--2-2-2-2---2-2-2-2--2-3-000--|
   pm - - - - - - - - - - - -|

(flange off)

e------------------------------|
b------------------------------|
g------------------------------|
d------------------------------| x4
a------------------------------|
d--2-2-2-2---2-2-2-2--2-3-000--|
   pm - - - - - - - - - - - -|

e---------------------------|
b---------------------------|
g---------------------------|
d--2-2-2-2--2-2-2-2--2h3-0--| x3
a--2-2-2-2--2-2-2-2--2h3-0--|
d--2-2-2-2--2-2-2-2--2h3-0--|

e---------------------------|
b---------------------------|
g---------------------------|
d--2-2-2-2--2-2-2-2---------|
a--2-2-2-2--2-2-2-2---------|
d--2-2-2-2--2-2-2-2---------|

e--------------|
b--------------|
g--------------|
d--7--7-7-9----|
a--7--7-7-9----|
d--7--7-7-9----|

e--------------------------------------------------------------------------------|
b--------------------------------------------------------------------------------|
g--------------------------------------------------------------------------------|
d--0h2-2--0-0h2-2--0-0h2--0-5-5-5-5-x-9---0h2-2--0-0h2-2--0-0h2--0-7-7-7-7-x-9---|
a--0h2-2--0-0h2-2--0-0h2--0-5-5-5-5-x-9---0h2-2--0-0h2-2--0-0h2--0-7-7-7-7-x-9---|
d--0h2-2--0-0h2-2--0-0h2--0-5-5-5-5-x-9---0h2-2--0-0h2-2--0-0h2--0-7-7-7-7-x-9---|

e--------------------------------------------------------------------------------|
b--------------------------------------------------------------------------------|
g--------------------------------------------------------------------------------|
d--0h2-2--0-0h2-2--0-0h2--0-5-5-5-5-x-9---0h2-2--0-0h2-2--0-0h2--0-7-7---x-7-9---|
a--0h2-2--0-0h2-2--0-0h2--0-5-5-5-5-x-9---0h2-2--0-0h2-2--0-0h2--0-7-7---x-7-9---|
d--0h2-2--0-0h2-2--0-0h2--0-5-5-5-5-x-9---0h2-2--0-0h2-2--0-0h2--0-7-7---x-7-9---|

e--------------------------------------------------------------------------------|
b--------------------------------------------------------------------------------|
g--------------------------------------------------------------------------------|
d--0h2-2--0-0h2-2--0-0h2--0-5-5-5-5-x-9---0h2-2--0-0h2-2--0-0h2--0-7-7-7-7-x-9---|
a--0h2-2--0-0h2-2--0-0h2--0-5-5-5-5-x-9---0h2-2--0-0h2-2--0-0h2--0-7-7-7-7-x-9---|
d--0h2-2--0-0h2-2--0-0h2--0-5-5-5-5-x-9---0h2-2--0-0h2-2--0-0h2--0-7-7-7-7-x-9---|

e----------------------------------------|
b--8--8--8--8--8--12--10-10-10-10-10-12--|
g--7--7--7--7--7--11--9--9--9--9--9--11--|
d--5--5--5--5--5--9---7--7--7--7--7--9---| x3
a--5--5--5--5--5--9---7--7--7--7--7--9---|
d--5--5--5--5--5--9---7--7--7--7--7--9---|

e--------------------------|
b--8--8--8--8--8--12-10-8--|
g--7--7--7--7--7--11-9--7--|
d--5--5--5--5--5--9--7--5--|
a--5--5--5--5--5--9--7--5--|
d--5--5--5--5--5--9--7--5--|

slight bends

e---------------------------------|
b---------------------------------|
g---------------------------------|
d--0-2-2--0-/-10-5-5--0-5h6b-0----| x3
a--0-2-2--0-/-10-5-5--0-5h6b-0----|
d--0-2-2--0-/-10-5-5--0-5h6b-0----|

e------------------------------|
b------------------------------|
g------------------------------|
d--0-2-2--0-/-10-5-5--0-6b-----|
a--0-2-2--0-/-10-5-5--0-6b-----|
d--0-2-2--0-/-10-5-5--0-6b-----|

(flange)

e------------------------------|
b----5-5------7-8-8------------|
g----4-4------6-7-7------------|
d--0-2-2--/--4-5-5-0-5h6b-0----| x4
a--0-2-2--/--4-5-5-0-5h6b-0----|
d--0-2-2--/--4-5-5-0-5h6b-0----|

*let last chord ring*

*rest*

e-----------------------------------------------------------------|
b-----------------------------------------------------------------|
g-----------------------------------------------------------------|
d--12--------------------16--x///-x///---------16--x\--x///-------|
a--12---x///////------14--------------------14--------------------|
d--12--------------14--------------------14-----------------------|

e----------------------------------------------------|
b----------------------------------------------------|
g----------------------------------------------------|
d--------16-------------------------16---0-----------|
a-----14-----x///-/-/-/-///------14------0-----------|
d--14-------------------------14---------0-----------|

e----------------------------------------------------|
b----------------------------------------------------|
g----------------------------------------------------|
d--------16--------------------16----0----17-16------|
a-----14--------------------14-------0----------17---|
d--14--------------------14----------0---------------|

e----------------------------------------------------|
b----------------------------------------------------|
g----------------------------------------------------|
d--------16--x///---------------16---0---------------|
a-----14----------x///-------14------0---------------|
d--14---------------------14---------0---------------|

(flange off)

e-----------------------------------|
b-----------------------------------|
g-----------------------------------|
d-----------------------------------| x4
a-----------------------------------|
d-0-2-2-2-0-0-0-3-3-0-5-5-2-2-0-0---|
  pm - - - - - - - - - - - - - - |

e---------------------------|
b---------------------------|
g---------------------------|
d--0-2--0-0-3-0-52-2-0-2----| x4
a--0-2--0-0-3-0-52-2-0-2----|
d--0-2--0-0-3-0-52-2-0-2----|

(as seen in a video)
e--------------------|
b--5-----------------|
g--4-x-x-4-x-5-------|
d--2-x-x-4-x-5-x-5/--| x3
a----x-x-2-x-3-x-5/--|
d--------------x-5/--|

e----------------------------|
b--5-------------------------|
g--4-x-x-4-x-5---------------|
d--2-x-x-4-x-5-x-5---0-------|
a----x-x-2-x-3-x-5---0-------|
d--------------x-5---0-------|

*rest for 4 bars*

e--------------|
b--------------|
g--------------|
d--2-2-2-2-----| x10
a--2-2-2-2-----|
d--2-2-2-2-----|
   pm - -|

(flange and delay)

e--------|
b--------|
g--------|
d--2222--|
a--2222--|
d--2222--|
   pm-|

e-----------------|
b-----------------|
g-----------------|
d--------16br-----| x4
a-----14----------|
d--14-------------|

e------------------------|
b------------------------|
g------------------------|
d------4b-------5--4-0---| x4
a----2--------2----------|
d--2--------2------------|

e---------------------------------------------------------|
b---------------------------------------------------------|
g---------------------------------------------------------|
d--12-14-12-14-12-14-12-14-12-14-12-14-12-14-12-14-12-14--|
a---------------------------------------------------------|
d---------------------------------------------------------|
   ph - - - - - - - - - - - - - - - - - - - - - - - - -|

e---------------------------------------------------------------------------|
b---------------------------------------------------------------------------|
g---------------------------------------------------------------------------|
d--12-14-12-14-12-14-12-14-12-14-12-14-12-14-12-14-12-14-------12-14--------|
a--------------------------------------------------------12-14-------12-14--|
d---------------------------------------------------------------------------|
   ph - - - - - - - - - - - - - - - - - - - - - - - - - - - - - - - - - -|

e-------------------------------|
b-------------------------------|
g-------------------------------|
d-------------------------------| x3
a-------------------------------|
d--12-14-12-14-12-14-12-14~~~---|
   ph - - - - - - - - - -|

e--------------------|
b--------------------|
g--------------------|
d--------------------|
a--------------------|
d--15-\\\\-----------|

e---------------------------|
b---------------------------|
g---------------------------|
d--0-2--0-0-3-0-52-2-0-2----| x4
a--0-2--0-0-3-0-52-2-0-2----|
d--0-2--0-0-3-0-52-2-0-2----|

e-------------------|
b-------------------|
g-------------------|
d--9-xx-9-x-10-x-7--| x4
a--9-xx-9-x-10-x-7--|
d--9-xx-9-x-10-x-7--|

(as seen in a video)
e----------------------------------------------|
b----------------------------------------------|
g--9--9-9-9--9-9-9/10-10-----------------------|
d--9--9-9-9--9-9-9/10-10--10--10--7--7-\-0-----|
a--7--7-7-7--7-7-7/8--8---10--10--7--7-\-0-----|
d-------------------------10--10--7--7-\-0-----|

e---------------------------------|
b---------------------------------|
g--9--9-9-9--9-9-9/10-10----------|
d--9--9-9-9--9-9-9/10-10--10--10--|
a--7--7-7-7--7-7-7/8--8---10--10--|
d-------------------------10--10--|

e-----------|
b-----------|
g-----------|
d--2-2-2-2--| x7
a--2-2-2-2--|
d--2-2-2-2--|

~~~~~~~~~~~~~~~~~~~~~~~~~~~~~~~~~~~~~~~~~~~~~~~~~~~~~~~
H.

*rest for 4 bars*

(distortion)

*feedback*

e---------------------------------------------|
b--3----------------3--------------2-----15---|
g--2----------------2--------------3-----14---|
d--0--*fours bars*--0--*2 bars*-xx-0-----0----|
a--0----------------0-----------xx-0-----0----|
d--0----------------0-----------xx-0-----0----|

(clean with flange and delay)

*slighty palm muted A and D strings*

e-----------------------------------------------|
b-----------------------------------------------|
g-----------5----5h7p5--------------5----5p4----|
d------7------77-------7-------7------77-----5--| x2
a--5-5---88----------------5-5---88-------------|
d-----------------------------------------------|

e---------------------------------------------|
b---------------------------------------------|
g---------------------------------------------|
d--7----5---7h8-7---7--5----------------5-----|
a-------------------------7--5----3h5-x----5--|
d---------------------------------------------|

e-----------------------------------------------|
b-----------------------------------------------|
g-----------5----5h7p5--------------5----5p4----|
d------7------77-------7-------7------77-----5--|
a--5-5---88----------------5-5---88-------------|
d-----------------------------------------------|

e--------------------------------------------------------------------------|
b--------------------------------------------------------------------------|
g--------------------------------------------------------------------------|
d------7---5-------------7---5-------------7---5-------------7-----5-------|
a--5-5---8---7-0-5---5-5---8---7-5-0---5-5---8---7-0-5---5-5---8---5--5-0--|
d------------------------------------------------------------------5--5-0--|

e----------------------------------------|
b----------------------------------------|
g----------------------------------------|
d------7---5---------------7-----5-------| x2
a--5-5---8---7-0-5-----5-5---8---5--5-0--|
d--------------------------------5--5-0--|

e--------------------|
b--------------------|
g--------------------|
d------7-----5-------| x4
a--5-5---8---5--5-0--|
d------------5--5-0--|

(distortion)

e---------------------------------|
b---------------------------------|
g---------------------------------|
d--0--------------0---------------|
a--0---x\\\----0---x///////-------|
d--0--------------0---------------|

(flange off)

(clean)

e-----------------------------------------------------------------------|
b-----------------------------------------------------------------------|
g-----------------------------------------------------------------------|
d-----------------------------------------------------------------------|
a-----0---------------0----------------0---------------0---------3p2----|
d--0----3---3-0----0----3--5-x-5----0----3---3-0----0----3---3h5-----5--|
  pm - - - - - - - - - - - - - - - - - - - - - - - - - - - - - - - - -|

e------------------------------------------------------------------------|
b------------------------------------------------------------------------|
g------------------------------------------------------------------------|
d---------------------------------------5p0------------------------------|
a-----0---------3-------------0-----3h5-----3h5-------0---------3--------|
d--0----3---3h5---5-3p0----0----3------------------0----3---3h5---5-3p0--|
  pm - - - - - - - - - - - - - - - - - - - - - - - - - - - - - - - - - |

e------------------------|
b------------------------|
g------------------------|
d---------------5p0------|
a-----0-----3h5-----3p0--|
d--0----3----------------|
  pm - - - - - - - - - |

e--------------------------------------------------------------------------|
b--------------------------------------------------------------------------|
g--------------------------------------------------------------------------|
d------7---5-------------7---5-------------7---5-------------7-----5-------|
a--5-5---8---7-0-5---5-5---8---7-5-0---5-5---8---7-0-5---5-5---8---5--5-0--|
d------------------------------------------------------------------5--5-0--|

e----------------------------------------|
b----------------------------------------|
g----------------------------------------|
d------7---5---------------7-----5-------| x2
a--5-5---8---7-0-5-----5-5---8---5--5-0--|
d--------------------------------5--5-0--|

e--------------------|
b--------------------|
g--------------------|
d------7-----5-------| x7
a--5-5---8---5--5-0--|
d------------5--5-0--|

e----------------|
b----------------|
g----------------|
d------7---------|
a--5-5---8b------|
d----------------|

(distortion)

e-----------------------------------------------------------------------|
b-----------------------------------------------------------------------|
g-----------------------------------------------------------------------|
d--0--7--3--5-------0--7--3--5-------0--7--3--5-------0--7--3--5-/-10---|
a--0--7--3--5--5p0--0--7--3--5--5p0--0--7--3--5--5p0--0--7--3--5-/-10---|
d--0--7--3--5--5p0--0--7--3--5--5p0--0--7--3--5--5p0--0--7--3--5-/-10---|

e-----------------------------------------------------------------------------|
b-------------------------------------------------------------------(flange)--|
g-----------------------------------------------------------------------------|
d--0--7--3--5-------0--7--3--5---10----0--7--3--5-------0--7--3--5---0--------|
a--0--7--3--5--5p0--0--7--3--5---10----0--7--3--5--5p0--0--7--3--5---0--------|
d--0--7--3--5--5p0--0--7--3--5---10----0--7--3--5--5p0--0--7--3--5---0--------|

*rest for 12 bars*

(flange)

e----------------|
b----------------|
g----------------|
d---------10h12--| x43
a--10h12---------|
d----------------|

e--------------------------------|
b--------------------------------|
g--------------------------------|
d---------10h12------------------| x15
a--10h12--------10h12------------|
d---------------------10h12------|

e-----------------------------|
b-----------------------------|
g-----------------------------|
d---------10h12---------------|
a--10h12--------10h12-10h12---|
d-----------------------------|

e----------------------------------------------------------------------------------------|
b----------------------------------------------------------------------------------------|
g----------------------------------------------------------------------------------------|
d----------------------------------------------------------------------------------------|
a--12--12--12--12-12-1210-10-10--10-10-10-10/12-12-12--12-12-12-12/13-13-13--13-13-13----|
d----------------------------------------------------------------------------------------|

e------------------------------------------------------------------------|
b------------------------------------------------------------------------|
g------------------------------------------------------------------------|
d------14----12~-------14----12~-------15----12~--12-12-12/13-13-13-13b--|
a--12-----15-------12-----15-------12-----14-----------------------------|
d------------------------------------------------------------------------|

(flange off)

e-------------------------------------------------------------------------------|
b-------------------------------------------------------------------------------|
g-------------------------------------------------------------------------------|
d--8-8-8-8-8-8-8-xx-5-5-5-5-5-5-5-xx-10-10-10-10-10-10-10-xx-xx-8-8-8-8-8-8-8---|
a--8-8-8-8-8-8-8-xx-5-5-5-5-5-5-5-xx-10-10-10-10-10-10-10-xx-xx-8-8-8-8-8-8-8---|
d--8-8-8-8-8-8-8-xx-5-5-5-5-5-5-5-xx-10-10-10-10-10-10-10-xx-xx-8-8-8-8-8-8-8---|
   pm - - - - - - - - - - - - - - - - - - - - - - - - - - - - - - - - - -|

e-------------------------------------------------------------------------------|
b-------------------------------------------------------------------------------|
g-------------------------------------------------------------------------------|
d--8-------8-8-8-8----5-5-5-5-5-5-5--/-10----------------10---0-----------------|
a--8-------8-8-8-8----5-5-5-5-5-5-5--/-10----------------10---0-----------------|
d--8-------8-8-8-8----5-5-5-5-5-5-5--/-10-10-10-10-10-10-10---0-----------------|

(distortion)

e-----------------------------------|
b-----------------------------------|
g-----------------------------------|
d--3p0-0-1p0-0-3p0-0-0-3p0-1p0-3-4--| x4
a--3p0-0-1p0-0-3p0-0-0-3p0-1p0-3-4--|
d--3p0-0-1p0-0-3p0-0-0-3p0-1p0-3-4--|

solo

(with wah)

e------------------------------------------------------------------------|
b------------------------------------------------------------------------|
g------------------------------------------------------------------------|
d--//14-[tremolo picking w/wah]--14/12-12-10/12-[tremolo picking w/wah]--|
a------------------------------------------------------------------------|
d------------------------------------------------------------------------|

e-----------------------------------------------------------------------------|
b-----------------------------------------------------------------------------|
g-----------------------------------------------------------------------------|
d--7--[tremolo picking w/wah]--75-5-3/5--5--0--0-[tremolo picking w/wah]------|
a-----------------------------------------------------------------------------|
d-----------------------------------------------------------------------------|

e-------------------|
b--3-------3--------|
g--5br-----5br------|
d-------------------|
a-------------------|
d-------------------|

e--------------------------------|
b--------------------------------|
g--------------------------------|
d--0--0-1--0-3--0-5--0-/-10-12---| x2
a--0--0-1--0-3--0-5--0-/-10-12---|
d--0--0-1--0-3--0-5--0-/-10-12---|

e----------------------------------|
b----------------------------------|
g----------------------------------|
d-xx-xx-0-1--0-3--0-5--0-/-10-12---| x2
a-xx-xx-0-1--0-3--0-5--0-/-10-12---|
d-xx-xx-0-1--0-3--0-5--0-/-10-12---|

e--------------------------------|
b--------------------(flange)----|
g--------------------------------|
d--0--0-1--0-3--0-5--0-----------|
a--0--0-1--0-3--0-5--0-----------|
d--0--0-1--0-3--0-5--0-----------|

*rest*

(clean)

e------------------------------|
b------------------------------|
g------------------------------|
d---7----7--5-----7--5----3----|
a------------------------------|
d------------------------------|
~~~~~~~~~~~~~~~~~~~~~~~~~~~~~~~~~~~~~~~~~~~~~~~~~~~~~~~~~~~~~~~~~~~~~~
FORTY SIX & 2

(light distortion with flange)

*volume off, hit open D5 chord and volume swell*

e--------------------------------------------|
b--------------------------------------------|
g--------------------------------------------|
d--------------------------------------------| x8
a--------------------------------------------|
d--12--10--1312----12--10--1312---8/10-------|
  pm - - - - - - - - - - - - - - - - - -|

e---------------------------------------------------------------------------|
b---------------------------------------------------------------------------|
g---------------------------------------------------------------------------|
d---------------------------------------------------------------------------|
a---------------------------------------------------------------------------|
d--12--10--1312----12--10--1312----12--10--1312----12--10--1312--8/10-------|

e------------------------------------------|
b------------------------------------------|
g------------------------------------------|
d--0---------------3-----------------0-----|
a--0---------------3-----------------0-----|
d--0---------------3-----------------0-----|

e-------------------------------------------------------------------|
b-------------------------------------------------------------------|
g-------------------------------------------------------------------|
d------------12-------------------------------------------------0---|
a-------12-------------------12---15--------------12---15-------0---|
d--12-------------------12---------------------15---------------0---|

e-------------|
b-------------|
g-------------|
d--54---------|
a------3/5----|
d-------------|

e----------------------------------------------|
b----------------------------------------------|
g----------------------------------------------|
d--0---------------3-----------------0-----12--|
a--0---------------3-----------------0---------|
d--0---------------3-----------------0---------|

e----------------------------------------------------------------------------|
b----------------------------------------------------------------------------|
g----------------------------------------------------------------------------|
d------------12---------------------------------------------------------12---|
a-------12-----------------12---15------------12---15--------------12--------|
d--12-----------------12-------------------15-----------------12-------------|

(clean)

e-----------------------------------------------------------------------|
b-----------------------------------------------------------------------|
g--19-19-19-19-19-19-19----17-17-17-17-17-17-17---16-16-16-16-16-16-16--|
d--19-19-19-19-19-19-19----19-19-19-19-19-19-19---17-17-17-17-17-17-17--|
a-----------------------------------------------------------------------|
d-----------------------------------------------------------------------|

e-----------------------------------------------------------------|
b--3-3-3-3-3-3-3-3-3-3--1-1-1-1-1-1-1-1-1-1--0-0-0-0-0-0-0-0-0-0--|
g--2-2-2-2-2-2-2-2-2-2--2-2-2-2-2-2-2-2-2-2--0-0-0-0-0-0-0-0-0-0--|
d-----------------------------------------------------------------|
a-----------------------------------------------------------------|
d-----------------------------------------------------------------|

(distortion)
e---------------------------|
b--3------------------------|
g--2----7----7----7----7b---|
d--0-------0----0----0------|
a--0------------------------|
d--0------------------------|

e----------------------------------------------------|
b----------------------------------------------------|
g----------------------------------------------------|
d----------------------------------------------------| x4
a----------------------------------------------------|
d--0--12--0--10-h-12--0--1312--0--10-h-12---8/10-----|

e-----------------------------------------|
b-----------------------------------------|
g-----------------------------------------|
d--0--12---10h12---1312---10h12---8/10----| x3
a--0--12---10h12---1312---10h12---8/10----|
d--0--12---10h12---1312---10h12---8/10----|

e----------------------|
b----------------------|
g----------------------|
d--0----0----0----0----|
a--0----0----0----0----|
d--0----0----0----0----|

e---------------------------------------------|
b---------------------------------------------|
g---------------------------------------------|
d---------------------------------------------| x4
a---------------------------------------------|
d--12--10--1312----12--10--1312---8/10--------|

e---------------------------------------------|
b---------------------------------------------|
g---------------------------------------------|
d---------------------------------------------| x7
a---------------------------------------------|
d--12--10--1312----12--10--1312---8/10--------|
  pm - - - - - - - - - - - - - - - - - -|

e---------------------------------|
b---------------------------------|
g---------------------------------|
d---------------------------------|
a---------------------------------|
d--0-12--0-12--0-12--0-12--0-12---|
                     ph - - - |

e--------------------------------------------------|
b--------------------------------------------------|
g--------------------------------------------------|
d--------------------------------------------------| x4
a--------------------------------------------------|
d--0--12--0--10--12--0--1312--0--10--12---8/10-----|

e------------------------------------------|
b------------------------------------------|
g------------------------------------------|
d--0--12---10h12---1312---10h12---8/10-----| x3
a--0--12---10h12---1312---10h12---8/10-----|
d--0--12---10h12---1312---10h12---8/10-----|

e----------------------------------|
b----------------------------------|
g----------------------------------|
D--0--12---0--12---0--12---0--12---|
A--0--12---0--12---0--12---0--12---|
D--0--12---0--12---0--12---0--12---|

e--------------------------------------------|
b--------------------------------------------|
g--------------------------------------------|
d--5h7--0-0--3h5--0--5h7--0--3h5--5h7--0--0--| x4
a--5h7--0-0--3h5--0--5h7--0--3h5--5h7--0--0--|
d--5h7--0-0--3h5--0--5h7--0--3h5--5h7--0--0--|
        pm-      pm      pm            pm -

e--------------------------------------------------------------------------|
b--------------------------------------------------------------------------|
g--------------------------------------------------------------------------|
d--12-(Trem. Pick)---15-(Trem. Pick)---14-(Trem. Pick)---13b-(Trem. Pick)--|
a--------------------------------------------------------------------------|
d--------------------------------------------------------------------------|

e------------------------------|
b------------------------------|
g------------------------------|
d--0--0-0-12\3--3--------------| x4
a--0--0-0-12\3--3--3-3-3h5-----|
d--0--0-0-12\3--3--------------|

                     x4                      x4
e-----------------------|------------------------|
b-----------------------|------------------------|
g-----------------------|------------------------|
d-----------------------|------------------------| (x2)
a-----------------------|------------------------|
d--12--0--10--0--1312--|--12--0--10--0--1312-----|
                          pm - - - - - - - - -|

                     x4                      x8
e-----------------------|------------------------|
b-----------------------|------------------------|
g-----------------------|------------------------|
d-----------------------|------------------------|
a-----------------------|------------------------|
d--12--0--10--0--1312--|--12--0--10--0--1312-----|
                          pm - - - - - - - - -|

(with wah open)

(increase the wah gradually over the 4 bars)
e-------------------------------------|
b-------------------------------------|
g-------------------------------------|
d--12--10---1312----12--10---1312-----| x4
a--12--10---1312----12--10---1312-----|
d--12--10---1312----12--10---1312-----|

(increase the wah to fully closed)
e------------------------------------|
b------------------------------------|
g------------------------------------|
d--12--10---1312--12--10--1312-------| x2
a--12--10---1312---------------------|
d------------------------------------|

e-----------------------------------------------|
b-----------------------------------------------|
g-----------------------------------------------|
d--12---10---13---12---10---13---12---10---13b--|
a-----------------------------------------------|
d-----------------------------------------------|

(wah off)

(ph with pick hand moving up and down string)
e--------------------------------|
b--------------------------------|
g--------------------------------|
g--------------------------------| x5
a--------------------------------|
d--12-10--13-12---12-10--13-12---|

e------------------------------------------|
b------------------------------------------|
g------------------------------------------|
d--12--10--1312----12--10--1312---8h10-----| x4
a--12--10--1312----12--10--1312---8h10-----|
d--12--10--1312----12--10--1312---8h10-----|

e------------------------------------|
b------------------------------------|
g------------------------------------|
d--12--10--1312----15--10--12---1----|
a--12--10--1312----15--10--12---1----|
d--12--10--1312----15--10--12---1----|

e----------------------------------------|
b----------------------------------------|
g----------------------------------------|
d--0--12--10h12---1312---10h12---8h10----|
a--0--12--10h12---1312---10h12---8h10----| x4
d--0--12--10h12---1312---10h12---8h10----|

e------------------------------------|
b------------------------------------|
g------------------------------------|
d--0--0--0--0--0--0--0--0--0--0--0---|
a--0--0--0--0--0--0--0--0--0--0--0---|
d--0--0--0--0--0--0--0--0--0--0--0---|

~~~~~~~~~~~~~~~~~~~~~~~~~~~~~~~~~~~~~~~~~~~~~~~~~~~~~~~~~~~~~~~~~~~~~~~~~
HOOKER WITH A PENIS

(heavy distortion with wah open)

*slow tempo*

e---------------------------------------------|
b---------------------------------------------|
g---------------------------------------------|
d---------------------------------------------|
a---------------------------------------------|
d--12-12-12-10-10-10-12b--12-12-10-10-12-12---|

(wah off)

e---------------------------------------------|
b---------------------------------------------|
g---------------------------------------------|
d--12-12-12-10-10-10-12b--12-12-10-10-12-12---| x2
a--12-12-12-10-10-10-12b--12-12-10-10-12-12---|
d--12-12-12-10-10-10-12b--12-12-10-10-12-12---|

*fast tempo*

e-------------------------------------------------|
b-------------------------------------------------|
g-------------------------------------------------|
d--10h12-12--10h12-12--10h12-12--10h12-10--10-10--| x4
a--10h12-12--10h12-12--10h12-12--10h12-10--10-10--|
d--10h12-12--10h12-12--10h12-12--10h12-10--10-10--|

e------------------------------------------------|
b------------------------------------------------|
g--7-7-7-7-7-7-7-7-7--9-9--5-5-5-5-5-5-5-5-5--9--|
d------------------------------------------------|
a--5-5-5-5-5-5-5-5-5--7-7--3-3-3-3-3-3-3-3-3--7--|
d------------------------------------------------|

e--------------------------------------------------------|
b--------------------------------------------------------|
g--7-7-7-7-7-7-7-7-7--9-9--17-17-17-17-17b17b17b17b17b---|
d--------------------------------------------------------|
a--5-5-5-5-5-5-5-5-5--7-7--15-15-15-15-15b15b15b15b15b---|
d--------------------------------------------------------|

e--------------|
b--------------|
g--------------|
d--------------| x16
a--------------|
d--3p0--0--3---|
  pm - - - -|

e-------------------------------------------------|
b-------------------------------------------------|
g-------------------------------------------------|
d--10h12-12--10h12-12--10h12-12--10h12-10--10-10--| x4
a--10h12-12--10h12-12--10h12-12--10h12-10--10-10--|
d--10h12-12--10h12-12--10h12-12--10h12-10--10-10--|

e----------------------|
b--3-------b-----------|
g--2-------b-----------|
d--0-------------------|
a--0-------------------|
d--0-------------------|

e-------------------------------------------------|
b-------------------------------------------------|
g-------------------------------------------------|
d-------------------------------------------------|
a-------------------------------------------------|
d--3p0-0-0-0-0-0-0-0-0-0---3p0-0-0-0-0-0-0-0-0-0--|
  pm - - - - - - - - - - - - - - - - - - - - - -|

e-----------------------------------------------------|
b-----------------------------------------------------|
g-----------------------------------------------------|
d------------------------------------------------0-0--|
a----------------------------------------------0-0-0--|
d--3p0-0-0-0-0-3p0-0-0-0-0---3p0-0-0-0-0-3p0-0-0-0-0--|
  pm - - - - - - - - - - - - - - - - - - - |

e---------------------------------------------|
b---------------------------------------------|
g---------------------------------------------|
d--0-10-10--0-5-5-5--0-3p0-0-0-0-0-0-0-0-0-0--|
a--0-10-10--0-5-5-5--0-3p0-0-0-0-0-0-0-0-0-0--|
d--0-10-10--0-5-5-5--0-3p0-0-0-0-0-0-0-0-0-0--|

e-------------------------------------------|
b-------------------------------------------|
g-------------------------------------------|
d--0-3-3--0-5-5-5--0-3p0-0-0-0-0-0-0-0-0-0--|
a--0-3-3--0-5-5-5--0-3p0-0-0-0-0-0-0-0-0-0--|
d--0-3-3--0-5-5-5--0-3p0-0-0-0-0-0-0-0-0-0--|

e---------------------------------------------|
b---------------------------------------------|
g---------------------------------------------|
d--0-10-10--0-5-5-5--0-3p0-0-0-0-0-0-0-0-0-0--|
a--0-10-10--0-5-5-5--0-3p0-0-0-0-0-0-0-0-0-0--|
d--0-10-10--0-5-5-5--0-3p0-0-0-0-0-0-0-0-0-0--|

e---------------------|
b---------------------|
g---------------------|
d--0-3-3--0-5-5-5--0--|
a--0-3-3--0-5-5-5--0--|
d--0-3-3--0-5-5-5--0--|

e-------------------------------------------------|
b-------------------------------------------------|
g-------------------------------------------------|
d-------------------------------------------------|
a-------------------------------------------------|
d--3p0-0-0-0-0-0-0-0-0-0-0-0-0-0-0-0-0-0-0-0-0-0--|
  pm - - - - - - - - - - - - - - - - - - - - - -|

e-------------------------------------------------|
b-------------------------------------------------|
g--(w/delay)-------------(w/delay)----------------|
d-------------------------------------------------|
a--3h5-------------------3h5----------------------|
d------0-0-0-0-0-0-0-0-0-----0-0-0-0-0-0-3-00-3---|
  pm - - - - - - - - - - - - - - - - - - - - - -|

*rest for 3.5 bars*

e---------------------------------------------|
b---------------------------------------------|
g---------------------------------------------|
d---------------------------------------------|
a---------------------------------------------|
d--3-00-3-----3-00-3-----3-00-3----3-00-3b----|
  pm - - - - - - - - - - - - - - - - - |

e-------------------------------------------------|
b-------------------------------------------------|
g-------------------------------------------------|
d-------------------------------------------------|
a-------------------------------------------------|
d--3p0-0-0-0-0-0-0-0-0-0---3p0-0-0-0-0-0-0-0-0-0--|
  pm - - - - - - - - - - - - - - - - - - - - - -|

e-----------------------------------------------------|
b-----------------------------------------------------|
g-----------------------------------------------------|
d------------------------------------------------0-0--|
a----------------------------------------------0-0-0--|
d--3p0-0-0-0-0-3p0-0-0-0-0---3p0-0-0-0-0-3p0-0-0-0-0--|
  pm - - - - - - - - - - - - - - - - - - - |

e---------------------------------------------|
b---------------------------------------------|
g---------------------------------------------|
d--0-10-10--0-5-5-5--0-3p0-0-0-0-0-0-0-0-0-0--|
a--0-10-10--0-5-5-5--0-3p0-0-0-0-0-0-0-0-0-0--|
d--0-10-10--0-5-5-5--0-3p0-0-0-0-0-0-0-0-0-0--|

e-------------------------------------------|
b-------------------------------------------|
g-------------------------------------------|
d--0-3-3--0-5-5-5--0-3p0-0-0-0-0-0-0-0-0-0--|
a--0-3-3--0-5-5-5--0-3p0-0-0-0-0-0-0-0-0-0--|
d--0-3-3--0-5-5-5--0-3p0-0-0-0-0-0-0-0-0-0--|

e---------------------------------------------|
b---------------------------------------------|
g---------------------------------------------|
d--0-10-10--0-5-5-5--0-3p0-0-0-0-0-0-0-0-0-0--|
a--0-10-10--0-5-5-5--0-3p0-0-0-0-0-0-0-0-0-0--|
d--0-10-10--0-5-5-5--0-3p0-0-0-0-0-0-0-0-0-0--|

e---------------------|
b---------------------|
g---------------------|
d--0-3-3----5-5-5--0--|
a--0-3-3----5-5-5--0--|
d--0-3-3----5-5-5--0--|

e------------------------------------------|
b------------------------------------------|
g------------------------------------------|
d--0-0-0-3-0-5-5-0-3--0-0-0-3-0-6-6-53-----| x3
a--0-0-0-3-0-5-5-0-3--0-0-0-3-0-6-6-53-----|
d--0-0-0-3-0-5-5-0-3--0-0-0-3-0-6-6-53-----|

e------------------------------------------------------|
b------------------------------------------------------|
g------------------------------------------------------|
d--0-0-0-15-0-17-17-0-15--0-0-0-15-0-18-18-1712\-------|
a--0-0-0-15-0-17-17-0-15--0-0-0-15-0-18-18-1712\-------|
d--0-0-0-15-0-17-17-0-15--0-0-0-15-0-18-18-1712\-------|

e-----------------------------------------------------|
b-----------------------------------------------------|
g-----------------------------------------------------|
d--7-0--7p0-6-0--6p0-5--0-5-0--3-0-10h12-10h12-10h12--|
a--7-0--7p0-6-0--6p0-5--0-5-0--3-0-10h12-10h12-10h12--|
d--7-0--7p0-6-0--6p0-5--0-5-0--3-0-10h12-10h12-10h12--|

e----------------------------------------|
b----------------------------------------|
g---------------------------------5---7--|
d--7-0--7p0-6-0--6p0-5--0-5-0--3---------|
a--7-0--7p0-6-0--6p0-5--0-5-0--3--3---5--|
d--7-0--7p0-6-0--6p0-5--0-5-0--3---------|

e---------------------------------------------------------|
b---------------------------------------------------------|
g--9-9-9-9-9-98-8-8-8-8-8/12-12-12-12-12-12-12b-----12----|
d-------------------------------------------------12------|
a--7-7-7-7-7-76-6-6-6-6-6/10-10-10-10-10-10-10b-----------|
d---------------------------------------------------------|

e---------------------------------------------------------------------------------------|
b---------------------------------------------------------------------------------------|
g---------------------------------------------------------------------------------------|
d--12--13-12h13-12h13-12h13--12--13-12h13-12h13-12h13--12--13-12h13-12h13-12h13--10b----|
a---------------------------------------------------------------------------------------|
d---------------------------------------------------------------------------------------|

*hold and release*

e---------------------------(wah open)----------------------------------|
b----------------------------10-----------------------------------------|
g----------------------------9------------------------------------------|
d--7--0-7-6--0-6-0---3---5---7--(bend notes and close the wah slowly)---|
a--7--0-7-6--0-6-0---3---5---7------------------------------------------|
d--7--0-7-6--0-6-0---3---5---7------------------------------------------|

     x9      x4
e-------|-------|
b-------|-------|
g-------|-------|
d--1-0--|--1-0--|
a--1-0--|--1-0--|
d--1-0--|--1-0--|
   pm-

*rest*

e--------------------------------------------------------------------------------------|
b--------------------------------------------------------------------------------------|
g--------------------------------------------------------------------------------------|
d--0-00-12--3h5-10h12--0-00-8--3h5-10h12--0-00-12--3h5-10h12--0-00-13-0-00-10-3h5-3p0--| x2
a--0-00-12--3h5-10h12--0-00-8--3h5-10h12--0-00-12--3h5-10h12--0-00-13-0-00-10-3h5-3p0--|
d--0-00-12--3h5-10h12--0-00-8--3h5-10h12--0-00-12--3h5-10h12--0-00-13-0-00-10-3h5-3p0--|

e-------------------------------------------------|
b-------------------------------------------------|
g-------------------------------------------------|
d--10h12-12--10h12-12--10h12-12--10h12-10--10-10--| x4
a--10h12-12--10h12-12--10h12-12--10h12-10--10-10--|
d--10h12-12--10h12-12--10h12-12--10h12-10--10-10--|

e---------------------------|
b---------------------------|
g---------------------------|
d--12~-12~-12~-12~-10~-10~--| x4
a--12~-12~-12~-12~-10~-10~--|
d--12~-12~-12~-12~-10~-10~--|

e--------------|
b--------------|
g--------------|
d--12\--------|
a--12\--------|
d--12\--------|
~~~~~~~~~~~~~~~~~~~~~~~~~~~~~~~~~~~~~~~~~~~~~~~~~~~~~~~~~~~~~~~~~~~~
(distortion)

e----------------------------------------|
b----------------------------------------|
g----------------------------------------|
d----------------------------------------| x6
a----------------------------------------|
d--/12-0-0-3---/12-0-0-5---/12-0-0-1/10--|

(flange and delay)

e-------------------------------------------------------------------|
b-------------------------------------------------------------------|
g-------------------------------------------------------------------|
d--0---12----------10----------12-----------------------------------|
a--0---12-------12----------12----12--------------------------------|
d--0---12----------------------------------13-15-12-----------------|

e----------------------------------------------|
b----------------------------------------------|
g----------------------------------------------|
d----------------------------------------------|
a----------------------------------------------|
d--13-15-12-----------------12--12///--110-----|

(flange and delay off)

e------------------|
b------------------|
g------------------|
d------------------| x8
a------------------|
d--0-10-12-0-12~~--|

e------------------------------------------------|
b------------------------------------------------|
g------------------------------------------------|
d------------------------------------------------| x4
a------------------------------------------------|
d--12-0--0-1210--12-0--0-1012--12-0--0-1s10------|
  pm - - - - - - - - - - - - - - - - - - - - |

e-------------------------------------------------|
b-------------------------------------------------|
g-------------------------------------------------|
d-------------------------------------------------|
a-------------------------------------------------| x3
d--12-15-12-10-12---12-15-12-10-12---12-15-12-10--|
  pm - - - - - - - - - - - - - - - - - - - - - -|

e-----------------------------------------|
b-----------------------------------------|
g-----------------------------------------|
d-----------------------------------------|
a-----------------------------------------|
d--12-15-12-10-12-12-12-12-10-10-12-12b---|

e----------------------------------------|
b----------------------------------------|
g----------------------------------------|
d----------------------------------------| x6
a----------------------------------------|
d--/12-0-0-3---/12-0-0-5---/12-0-0-1/10--|

e------------------------------------------------|
b------------------------------------------------|
g------------------------------------------------|
d--0-10-12-0-12b--0-10-12-0-12b--0-10-12-0-1/10--|
a--0-10-12-0-12b--0-10-12-0-12b--0-10-12-0-1/10--|
d--0-10-12-0-12b--0-10-12-0-12b--0-10-12-0-1/10--|

  (tremelo picking)
e--------------------|
b--15--bbb--rrr------|
g--14--bbb--rrr------|
d--12--bbb--rrr------|
a--12--bbb--rrr------|
d--12--bbb--rrr------|

e-------------------------------------|
b-------------------------------------|
g-------------------------------------|
d--12-----7-----10-10----0--8-7-5/12--| x3
a--12-----7-----10-10----0--8-7-5/12--|
d--12-----7-----10-10----0--8-7-5/12--|

e-------------------------|
b-------------------------|
g-------------------------|
d--12-----7-----10b-------|
a--12-----7-----10b-------|
d--12-----7-----10b-------|

(this is underneath distorted bass riff)
e---------------------------------------|
b---------------------------------------|
g---------------------------------------|
d--(fast tremolo picking rythmn)--------| x8
a---------------------------------------|
d--10-12-12-10-12-12-10-12-12-10-12-12--|

                 x8                  x8
e-------------------|-------------------|
b-------------------|-------------------|
g-------------------|-------------------| ]
d-------------------|-------------------| ] x2
a-------------------|-------------------|
d--12-15-12-10-12---|--12-10-12-10-12~--|
  pm - - - - - - |

e----------------------------------------|
b----------------------------------------|
g----------------------------------------|
d--/12-0-0-3---/12-0-0-5---/12-0-0-1/10--|
a--/12-0-0-3---/12-0-0-5---/12-0-0-1/10--| x4
d--/12-0-0-3---/12-0-0-5---/12-0-0-1/10--|

(flange)

e-------------------------------------------------|
b-------------------------------------------------|
g-------------------------------------------------|
d--12--------6----------3--------------3/5-5------|
a--12--------6----------3--------------3/5-5------|
d--12--------6----------3--------------3/5-5------|

e-------------------------------------------------|
b-------------------------------------------------|
g-------------------------------------------------|
d--12--------6----------3--------------3/8-8------|
a--12--------6----------3--------------3/8-8------|
d--12--------6----------3--------------3/8-8------|

e-------------------------------------------------|
b-------------------------------------------------|
g-------------------------------------------------|
d--12--------6----------3--------------3/5-5------|
a--12--------6----------3--------------3/5-5------|
d--12--------6----------3--------------3/5-5------|

e-------------------------------------------------|
b-------------------------------------------------|
g-------------------------------------------------|
d--12--------10---------3b------------------------|
a--12--------10---------3b------------------------|
d--12--------10---------3b------------------------|

e-----------------------------------------------------|
b-----------------------------------------------------|
g-----------------------------------------------------|
d-----------------------------------------------------| x3
a----------------------------3b-------------0-1/------|
d--12p0---0-3-5-6-------3b-------------0-1/-----------|

e-------------------------------------------------|
b-------------------------------------------------|
g-------------------------------------------------|
d--12--------6----------3---------8---------------|
a--12--------6----------3---------8---------------|
d--12--------6----------3---------8-----8b--------|

(flange off)

e----------------------------------------|
b----------------------------------------|
g----------------------------------------|
d--/12-0-0-3---/12-0-0-5---/12-0-0-1/10--|
a--/12-0-0-3---/12-0-0-5---/12-0-0-1/10--| x3
d--/12-0-0-3---/12-0-0-5---/12-0-0-1/10--|

e----------------------------------------|
b----------------------------------------|
g----------------------------------------|
d--/12-0-0-3---/12-0-0-5---/12-0-0-1b----|
a--/12-0-0-3---/12-0-0-5---/12-0-0-1b----|
d--/12-0-0-3---/12-0-0-5---/12-0-0-1b----|
~~~~~~~~~~~~~~~~~~~~~~~~~~~~~~~~~~~~~~~~~~~~~~~~~~~~~~~~~~~~~~~
PUSHIT

(turn tone knob all the way down)

(distortion with flange)

*Note: A string is slightly palm muted throughout*

*buzzing*

e----------------------------|
b----------------------------|
g----------------------------|
d--10p9-7-------5-----7------| x10
a-------0-0-0-0---0-0---0-0--|
d----------------------------|

e-----------|
b-----------|
g-----------|
d--10-9-----|
a--10-9-----|
d--10-9-----|

e----------------------------|
b----------------------------|
g----------------------------|
d--7-----5-----7-----10p9----| x4
a----0-0---0-0---0-0------0--|
d----------------------------|

(delay)

e---------------------------------------------|
b---------------------------------------------|
g---------------------------------------------|
d--7----------------7-----5-----7-----10p9----|
a--0------------------0-0---0-0---0-0------0--|
d---------------------------------------------|

e---------------------------------------------|
b---------------------------------------------|
g---------------------------------------------|
d--7---------10p9---7-----5-----7-----10p9----|
a--0--------------0---0-0---0-0---0-0------0--|
d---------------------------------------------|

e---------------------------------------------|
b---------------------------------------------|
g---------------------------------------------|
d--7----------------7-----5-----7-----10p9----|
a--0------------------0-0---0-0---0-0------0--|
d---------------------------------------------|

e---------------------------------------------|
b---------------------------------------------|
g---------------------------------------------|
d--7---------10p9---7-----5-----7-----10p9----|
a--0--------------0---0-0---0-0---0-0------0--|
d---------------------------------------------|

 (chords implied by bass)
e-----------------------------|
b-----------------------------|
g-(9)---(7)---(9)---(1211)----|
d--7-----5-----7-----109------| x4
a----0-0---0-0---0-0------0---|
d-----------------------------|

(flange and delay off)

e----------------------------|
b----------------------------|
g----------------------------|
d--7-----5-----7-----10p9----| x4
a--0-0-0-0-0-0-0-------------|
d----------------------------|

e-------------------------|
b-------------------------|
g-------------------------|
d--0-7--0-5--0-7--0-10p9--| x4
a--0-7--0-5--0-7--0-10p9--|
d--0-7--0-5--0-7--0-10p9--|

e----------------------------|
b----------------------------|
g----------------------------|
d--7-----5-----7-----10p9----| x4
a----0-0---0-0---0-0------0--|
d----------------------------|

e----------------------------------------|
b----------------------------------------|
g----------------------------------------|
d--7------(volume swells with volume-----|
a--0---------knob and delay pedal)-------|
d----------------------------------------|

e----------------------------|
b----------------------------|
g----------------------------|
d--7-----5-----7-----10p9----| x4
a--0-0-0-0-0-0-0-------------|
d----------------------------|

e-------------------------|
b-------------------------|
g-------------------------|
d--0-7--0-5--0-7--0-10p9--| x4
a--0-7--0-5--0-7--0-10p9--|
d--0-7--0-5--0-7--0-10p9--|

e----------------------------|
b----------------------------|
g----------------------------|
d--7-----5-----7-----10p9----| x11
a----0-0---0-0---0-0------0--|
d----------------------------|

e-------------------------------|
b-------------------------------|
g-------------------------------|
d--7-----9-----12-----14p12\----|
a----0-0---0-0----0-0-----------|
d-------------------------------|

e----------------------------------------------------|
b----------------------------------------------------|
g----------------------------------------------------|
d--7-777-7-777-7-777-7-777--6-666-6-666-6-666-6-666--|
a--7-777-7-777-7-777-7-777--6-666-6-666-6-666-6-666--|
d--7-777-7-777-7-777-7-777--6-666-6-666-6-666-6-666--|

e----------------------------------------------------|
b----------------------------------------------------|
g----------------------------------------------------|
d--3-333-3-333-3-333-3-333--5-555-5-555-5-555-5-555--|
a--3-333-3-333-3-333-3-333--5-555-5-555-5-555-5-555--|
d--3-333-3-333-3-333-3-333--5-555-5-555-5-555-5-555--|

e----------------------------------------------------|
b----------------------------------------------------|
g----------------------------------------------------|
d--7-777-7-777-7-777-7-777--6-666-6-666-6-666-6-666--|
a--7-777-7-777-7-777-7-777--6-666-6-666-6-666-6-666--|
d--7-777-7-777-7-777-7-777--6-666-6-666-6-666-6-666--|

e----------------------------------------------------|
b----------------------------------------------------|
g----------------------------------------------------|
d--3-xxx-3-xxx-3-xxx-3-xxx--5-xxx-5-xxx-5-xxx-5-xxx--|
a--3-xxx-3-xxx-3-xxx-3-xxx--5-xxx-5-xxx-5-xxx-5-xxx--|
d--3-xxx-3-xxx-3-xxx-3-xxx--5-xxx-5-xxx-5-xxx-5-xxx--|

                       4x
e----------|---------------|
b----------|---------------|
g----------|---------------|
d--10-9-7--|--3-00-3-/10---|
a--10-9-7--|--3-00-3-/10---|
d--10-9-7--|--3-00-3-/10---|

e----------------------------------|
b----------------------------------|
g----------------------------------|
d--7~--7-7-7--7-7-7--7-7-7--7~-7~--| x4
a--0~--0-0-0--0-0-0--0-0-0--0~-0~--|
d----------------------------------|

(with delay)

e---------------------------------------------|
b---------------------------------------------|
g---------------------------------------------|
d--0---------0---------0---------0-------0----|
a--0---------0---------0---------0-------0----|
d--0---------0---------0---------0-------0----|

*rest for 12 bars*

(pick scrapes)

(clean with delay)

e-----------------------------------|
b-----15-17-15-14-12-----12--12-----|
g--14----------------12----12---14--|
d-----------------------------------|
a-----------------------------------|
d-----------------------------------|

*rest for 3.5 bars*

e--------------------------------|
b-----15-------------------------|
g--14------(rest)-------(rest)---|
d--------------------------------|
a-----------------x///-----------|
d--------------------------------|

e-------------------------------------------------------------------|
b-----15------------------------------------------------------------|
g--14-----15-14--14-12--12-11--11-9------------12---14-12-----------|
d------------------------------------14-12--12------------12-11-----|
a---------------------------------------------------------------12--|
d-------------------------------------------------------------------|

e---------------------------|
b---------------------------|
g---------------------------|
d--------11---14---17---19--|
a--12--0----0----0----0-----|
d---------------------------|

*rest*

e----------|
b-----15---|
g--14------|
d----------|
a----------|
d----------|

(flange)

(very quiet)

e---------------------------------------------------|
b---------------------------------------------------|
g-----14----14-----14----14-----14----14-----14-12--|
d--12----12-----15----15-----17----17-----10--------| x2
a---------------------------------------------------|
d---------------------------------------------------|

*rest*

(distortion)

e----------------------------------------------------------------|
b----------------------------10-10------8-----8-----8--8--8-8----|
g--2-2-2-2-2-2-2-2-----------9--9-------7-----7-----7--7--7-7----|
d--2-2-2-2-2-2-2-2---7-------7--7--0-5--5--5--5--5--5--5--5-5-5--|
a--0-0-0-0-0-0-0-0---7-------7--7--0-5--5--5--5--5--5--5--5-5-5--|
d--------------------7-------7--7--0-5--5--5--5--5--5--5--5-5-5--|
  pm - - - - - - |

e------------------------------------------------|
b------------------------------------------------|
g------------------------------------------------|
d--(tremolo picking throughout)------------------|
a------------------------------------------------|
d--7--------------///-12--//-14-//-15-//-17b-----|

          x4
e-----------|-------------------5---|
b-10-/-15---|----8--8---8-8-8-8--8--|
g-9--/-14---|----7--7---7-7-7-7---7-|
d-7--/-12-0-|-5--5--5---------------|
a-7--/-12-0-|-5--5--5---------------|
d-----------|-5--5--5---------------|

e--------------------------------------------------|
b--------------------------------------------------|
g--2-(tremolo pick)-2h3p2-2-(t.p.)-2h3p2-2-(t.p.)--|
d--------------------------------------------------|
a--------------------------------------------------|
d--------------------------------------------------|

 (tremolo picking)                   x :)
e---------------------------|------------|
b---------------------------|-(go nuts)--|
g--2h5p2-2-2h5p2-2-2h5p2-2--|--2h3-2h5---|
d---------------------------|------------|
a---------------------------|------------|
d---------------------------|------------|

e----------------------------------------------------|
b----------------------------------------------------|
g----------------------------------------------------|
d--/14-14-14--15-17-17-17-----17-17-17-x-12-12-12----| x2
a--/12-12-12--15-15-15-15--15-17-17-17-x-12-12-12----|
d--/12-12-12--15-15-15-15--15-17-17-17-x-12-12-12----|

e------------------|
b------------------|
g------------------|
d--7--7--7--5-5h7--| x3
a------------------|
d------------------|

e----------------------------------------------------|
b----------------------------------------------------|
g----------------9-9--12-12--7-7-6-6-6-9-6-----------|
d--7b--------7-7---------------------------7---------|
a------------------------------------------0---------|
d----------------------------------------------------|
   ph

e------------------------------------------------|
b------------------------------------------------|
g------------9-9--12-12--7-7-6-6-6-9-6-----------|
d--5-5--7-7----------------------------7---------| x2
a--------------------------------------0---------|
d------------------------------------------------|

e------------------------------------|
b------------------------------------|
g------------------------------------|
d--5-5--7-7----7---5-----------------|
a------------7---7---5-5-5-4-7-4-0---|
d------------------------------------|

(flange)

e-----------------------|
b-----------------------|
g--2-2-2-2-2-2-2-2-2-2--|
d--2-2-2-2-2-2-2-2-2-2--|
a--0-0-0-0-0-0-0-0-0-0--|
d-----------------------|
  pm - - - - - |

e----------------------------------|
b-------------------3--------------|
g-------------------2--------------|
d--7-7--2-2--5-5--0-0--------------| x3
a--7-7--2-2--5-5--0-0--------------|
d--7-7--2-2--5-5--0-0--------------|

*rest*

e-----------------------------------------------|
b-------------------3---------------------------|
g-------------------2---------------------------|
d--7-7--2-2--5-5--0-0---0-00-0--0-00-0--0-00-0--|
a--7-7--2-2--5-5--0-0---0-00-0--0-00-0--0-00-0--|
d--7-7--2-2--5-5--0-0---0-00-0--0-00-0--0-00-0--|
                        pm - - - - - - - - - |

e--------------------------|
b--------------------------|
g--------------------------|
d--7-7--2-2-/-10-10b-------|
a--7-7--2-2-/-10-10b-------|
d--7-7--2-2-/-10-10b-------|

             4x
e---------------|
b---------------|
g---------------|
d--3-000-3-000--|
a--3-000-3-000--|
d--3-000-3-000--|

e----------------------------------|
b----------------------------------|
g----------------------------------|
d--7~--7-7-7--7-7-7--7-7-7--7~-7~--| x8
a--0~--0-0-0--0-0-0--0-0-0--0~-0~--|
d----------------------------------|

                              x3
e--------------------------------|---------------------------|
b--------------------------------|---------------------------|
g--------------------------------|---------------------------|
d--7-7-7-10-1010-10--8-----------|--7--7--7-7-7-7-7-7-7-7-7--|
a--0-0-0-10-1010-10--8-8h10-10~--|--0--0--0-0-0-0-0-0-0-0-0--|
d--------10-1010-10--8-----------|---------------------------|

             x2
e---------------|---------|
b---------------|---------|
g---------------|---------|
d--7--0--10--0--|--8------|
a--7--0--10--0--|--8------|
d--7--0--10--0--|--8------|
~~~~~~~~~~~~~~~~~~~~~~~~~~~~~~~~~~~~~~~~~~~~~~~~~~~~~~~~~
AENIMA

***
A very Important note before you start
--------------------------------------
-The A and low D strings are played by hammer on the 2nd fret
 with your fret hand and pulling off to the open D5 chord to an
 8th note pattern.
-The open G and high D strings are played with regular picking
-When it says (no pm) above the G and high D strings, it only
 applies to the G and high D strings
***

*breathing*

(distortion)

e---------------------|
b---------------------|
g--------0------------| x8
d--------0------------|
a--2p0-2p0-2p0-2p0-2--|
d--2p0-2p0-2p0-2p0-2--|

              x3                             x4
e---------------|---------------|---------------|
b---------------|---------------|---------------|
g--------0------|--------0------|--------0------|
d--------0------|--------0------|--------0------|
a--2p0-2p0-2p0--|--2p0-2p0-4p0--|--5p0-5p0-5p0--|
d--2p0-2p0-2p0--|--2p0-2p0-4p0--|--5p0-5p0-5p0--|
   pm - - - -|     pm - - - -|     pm - - - -|

              x3                             x4
e---------------|---------------|---------------|---------------|
b---------------|---------------|----(no pm)----|----(no pm)----|
g--------0------|--------0------|--------0------|--------0------|
d--------0------|--------0------|--------0------|--------0------|
a--2p0-2p0-2p0--|--2p0-2p0-4p0--|--5p0-5p0-5p0--|--5p0-5p0------|
d--2p0-2p0-2p0--|--2p0-2p0-4p0--|--5p0-5p0-5p0--|--5p0-5p0------|
   pm - - - -|     pm - - - -|     pm - - - -|     pm - -|

              x3                             x4
e---------------|---------------|---------------|
b---------------|---------------|---------------|
g--------0------|--------0------|--------0------|
d--------0------|--------0------|--------0------|
a--2p0-2p0-2p0--|--2p0-2p0-4p0--|--5p0-5p0-5p0--|
d--2p0-2p0-2p0--|--2p0-2p0-4p0--|--5p0-5p0-5p0--|
   pm - - - -|     pm - - - -|     pm - - - -|

              x3                             x2
e---------------|---------------|---------------|--------------------------|
b----(no pm)----|----(no pm)----|---------------|--------------------------|
g--------0------|--------0------|--------0------|--------0-----------------|
d---------------|---------------|--------0------|--5p0-5-0-5-0--0-0-0--0---|
a--2p0-2p0-2p0--|--2p0-2p0-4p0--|--5p0-5p0-5p0--|--5p0-5---5-0--0-0-0--0---|
d--2p0-2p0-2p0--|--2p0-2p0-4p0--|--5p0-5p0-5p0--|--5p0-5---5-0--0-0-0--0---|
   pm - - - -|     pm - - - -|     pm - - - -|

e-----------------------------------|-----------------------------------|
b-----------------------------------|-----------------------------------|
g-----------------------------------|-----------------------------------|
d--2-x-xxx--2-x-xxx--2-x-xxx--5--0--|--2-x-xxx--2-x-xxx--2-x-xxx--3--0--|
a--2-x-xxx--2-x-xxx--2-x-xxx--5--0--|--2-x-xxx--2-x-xxx--2-x-xxx--3--0--|
d--2-x-xxx--2-x-xxx--2-x-xxx--5--0--|--2-x-xxx--2-x-xxx--2-x-xxx--3--0--|

e-----------------------------------|-----------------------------------|
b-----------------------------------|-----------------------------------|
g-----------------------------------|-----------------------------------|
d--2-x-xxx--2-x-xxx--2-x-xxx--5--0--|--2-x-xxx--2-x-xxx--2-x-xxx--10-0--|
a--2-x-xxx--2-x-xxx--2-x-xxx--5--0--|--2-x-xxx--2-x-xxx--2-x-xxx--10-0--|
d--2-x-xxx--2-x-xxx--2-x-xxx--5--0--|--2-x-xxx--2-x-xxx--2-x-xxx--10-0--|

e-------------------------|
b-------------------------|
g-------------------------|
d-------------------------|
a-------------------------|
d--2-----5---0-------2----|

*feedback*

              x3                             x4
e---------------|---------------|---------------|
b---------------|---------------|---------------|
g--------0------|--------0------|--------0------|
d--------0------|--------0------|--------0------|
a--2p0-2p0-2p0--|--2p0-2p0-4p0--|--5p0-5p0-5p0--|
d--2p0-2p0-2p0--|--2p0-2p0-4p0--|--5p0-5p0-5p0--|
   pm - - - -|     pm - - - -|     pm - - - -|

              x3                             x4
e---------------|---------------|---------------|---------------|
b---------------|---------------|----(no pm)----|----(no pm)----|
g--------0------|--------0------|--------0------|--------0------|
d--------0------|--------0------|--------0------|--------0------|
a--2p0-2p0-2p0--|--2p0-2p0-4p0--|--5p0-5p0-5p0--|--5p0-5p0------|
d--2p0-2p0-2p0--|--2p0-2p0-4p0--|--5p0-5p0-5p0--|--5p0-5p0------|
   pm - - - -|     pm - - - -|     pm - - - -|     pm - -|

              x3                             x4
e---------------|---------------|---------------|
b---------------|---------------|---------------|
g--------0------|--------0------|--------0------|
d--------0------|--------0------|--------0------|
a--2p0-2p0-2p0--|--2p0-2p0-4p0--|--5p0-5p0-5p0--|
d--2p0-2p0-2p0--|--2p0-2p0-4p0--|--5p0-5p0-5p0--|
   pm - - - -|     pm - - - -|     pm - - - -|

              x6
e-----(no pm)---|---------------------|
b--------0------|---------------------|
g---------------|---------------------|
d---------------|--5-5-5-5--0-0-0-0---|
a--2p0-2p0-2p0--|--5-5-5-5--0-0-0-0---|
d--2p0-2p0-2p0--|--5-5-5-5--0-0-0-0---|
   pm - - - -|

e-----------------------------------|------------------------------------|
b-----------------------------------|------------------------------------|
g-----------------------------------|------------------------------------|
d--2-x-xxx--2-x-xxx--2-x-xxx--5--0--|--2-x-xxx--2-x-xxx--2-x-xxx--3--0---|
a--2-x-xxx--2-x-xxx--2-x-xxx--5--0--|--2-x-xxx--2-x-xxx--2-x-xxx--3--0---|
d--2-x-xxx--2-x-xxx--2-x-xxx--5--0--|--2-x-xxx--2-x-xxx--2-x-xxx--3--0---|

e-----------------------------------|------------------------------------|
b-----------------------------------|------------------------------------|
g-----------------------------------|------------------------------------|
d--2-x-xxx--2-x-xxx--2-x-xxx--5--0--|--2-x-xxx--2-x-xxx--2-x-xxx--10-12--|
a--2-x-xxx--2-x-xxx--2-x-xxx--5--0--|--2-x-xxx--2-x-xxx--2-x-xxx--10-12--|
d--2-x-xxx--2-x-xxx--2-x-xxx--5--0--|--2-x-xxx--2-x-xxx--2-x-xxx--10-12--|

e-------------------------------------------------|
b-------------------------------------------------|
g-------------------------------------------------|
d--0--0-0-0--10-10-10-12--2--2-2-2--10-10-10-12---| x2
a--0--0-0-0--10-10-10-12--2--2-2-2--10-10-10-12---|
d--0--0-0-0--10-10-10-12--2--2-2-2--10-10-10-12---|

e-------------------------------------------------|
b-----------------------------------13-13-13-15---|
g-----------------------------------12-12-12-14---|
d--0--0-0-0--10-10-10-12--2--2-2-2--10-10-10-12---|
a--0--0-0-0--10-10-10-12--2--2-2-2----------------|
d--0--0-0-0--10-10-10-12--2--2-2-2----------------|

e-------------------------------------------------------|
b-15-15-15-13-13-13--15--13----(flange)-----------------|
g-14-14-14-12-12-12--14--12-----------------------------|
d-12-12-12-10-10-10--12--10--2------------2~~---2--~~---|
a----------------------------2--------------------------|
d----------------------------2--------------------------|

*with a slide*

(clean with flange and delay)

(this is behind the last bit of the previous riff)
e-------------------------|
b-------------------------|
g-------------------------|
d--12/11/-----12/11/------|
a-------------------------|
d-------------------------|

(vocals come in)

e----------------------------------------------------|
b----------------------------------------------------|
g----------------------------------------------------|
d--9-----7-----10-----9/----9-----7-----5-----4---0--|
a----------------------------------------------------|
d----------------------------------------------------|

(distortion)

e---------------------------------------------|
b---------------------------------------------|
g---------------------------------------------|
d--2-------------2/5------------52------------|
a--2-------------2/5------------52------------|
d--2-------------2/5------------52------------|

e---------------------------------------------|
b---------------------------------------------|
g---------------------------------------------|
d--2/5----------52---------2---2/5---5--------|
a--2/5----------52---------2---2/5------------|
d--2/5----------52---------2---2/5------------|

*light feedback*

slide solo

e--------------------------------------------|
b--------------------------------------------|
g--------------9--------9--------9--------9--|
d--------7/9-9----7/9-9----7/9-9----7/9-9----|
a--------------------------------------------|
d--10/12-------------------------------------|

e-------------------------------|
b-------------------------12----|
g-----12------12----12----------|
d-12--12------12-------12-------|
a----------------12-------------|
d-------------------------------|

e------------------------------------------------------------------------//12--|
b----------------------------------------------12----//12-//12-//12-//12-//12--|
g--------9--------9----9--------12----14-------12----//12-//12-//12-//12-//12--|
d--7/9-9----7/9-9----------9----12---------12--12----//12-//12-//12-//12-------|
a------------------------------------------------------------------------------|
d------------------------------------------------------------------------------|

(triplet feel)

           x7
e-------------|------------------|
b-------------|------------------|
g-------------|------------------|
d-2-2-2-2-2-2-|-2-2-2-/-/-/-5-5--|
a-2-2-2-2-2-2-|-2-2-2-/-/-/-5-5--|
d-2-2-2-2-2-2-|-2-2-2-/-/-/-5-5--|
  pm - - - - |

*get rid of the slide*

*rest*

e-------------|
b-------------|
g-------<5>---|
d--<5>--------|
a-------------|
d-------------|

           x7
e-------------|------------------|
b-------------|------------------|
g-------------|------------------|
d-2-2-2-2-2-2-|-2-2-2-/-/-/-5-5--|
a-2-2-2-2-2-2-|-2-2-2-/-/-/-5-5--|
d-2-2-2-2-2-2-|-2-2-2-/-/-/-5-5--|
  pm - - - - |

*rest*

                         x6
e---2---------|-------------|------------------|
b-------------|-------------|------------------|
g-------------|-------------|------------------|
d-2---2-2-2-2-|-2-2-2-2-2-2-|-2-2-2-/-/-/-5-5--|
a-2---2-2-2-2-|-2-2-2-2-2-2-|-2-2-2-/-/-/-5-5--|
d-2---2-2-2-2-|-2-2-2-2-2-2-|-2-2-2-/-/-/-5-5--|
  pm - - - - |  pm - - - - |

e-----------------------------------------------------|
g--8-8-8-8-8-8-8-8-8-8-8-8-8-8-8-8-8-8-8-8-8-8-820----|
b--7-7-7-7-7-7-7-7-7-7-7-7-7-7-7-7-7-7-7-7-7-7-719----|
d--5-5-5-5-5-5-5-5-5-5-5-5-5-5-5-5-5-5-5-5-5-5-517----|
a--5-5-5-5-5-5-5-5-5-5-5-5-5-5-5-5-5-5-5-5-5-5-517----|
d--5-5-5-5-5-5-5-5-5-5-5-5-5-5-5-5-5-5-5-5-5-5-517----|

e---------------------------------------|
b--20-20-20-20-20-20-20-20-20-20-20-20--|
g--19-19-19-19-19-19-19-19-19-19-19-19--|
d--17-17-17-17-17-17-17-17-17-17-17-17--|
a--17-17-17-17-17-17-17-17-17-17-17-17--|
d--17-17-17-17-17-17-17-17-17-17-17-17--|

e---------------------------------|
b--8-8-8-8-8-8/20-20-20-20-20-20--|
g--7-7-7-7-7-7/19-19-19-19-19-19--|
d--5-5-5-5-5-5/17-17-17-17-17-17--|
a--5-5-5-5-5-5/17-17-17-17-17-17--|
d--5-5-5-5-5-5/17-17-17-17-17-17--|

e---------------------------------|
b--5-5-5-5-5-5/17-17-17-17-17-17--|
g--4-4-4-4-4-4/16-16-16-16-16-16--| x4
d--2-2-2-2-2-2/14-14-14-14-14-14--|
a--2-2-2-2-2-2/14-14-14-14-14-14--|
d--2-2-2-2-2-2/14-14-14-14-14-14--|

(normal feel, bring down volume)

(flange)

e----------------------------------------------|
b--8--------------8-------8--8-----------------|
g--7-----------7----7-----7----7---------------|
d--5-----------5------5---5------5---5---------|
a--5-----------5----------5----------5--514----|
d--5----------------------5----------5---------|

e-----------------------------------------------------|
b-----------------------------------------------------|
g-----------------------------------------------------|
d-----------------------------------------------------|
a--14---14--14-14--14--14/12--12---12--12-12--12--12--|
d-----------------------------------------------------|

e--------------------------------------------|
b--------------------------------------------|
g--------------------------------------------|
d--------------------------------------------|
a--15---15--15-15--15--15-14--14--14--14br---|
d--------------------------------------------|

e---------------------------------------------------|
b---------------------------------------------------|
g---------------------------------------------------|
d---------------------------------------------------|
a--14--14--14-14--14--14--1412--12-12--12--12-12----|
d---------------------------------------------------|

e----------------------------------|
b----------------------------------|
g----------------------------------|
d----------------------------------|
a--10---10--10-10--10--10-10--9----|
d----------------------------------|

(volume up)

e-----------------------------------------------------------------|
b--------------------------------------12----------------12-------|
g--------------------------------------11----------------11-------|
d--2--2-p0--0--0--5--5--0--0-/9--9-9-9-9--0-0-/9--9-9-9-9--0-0-0--| x2
a--2--2-p0--0--0--5--5--0--0-/9--9-9-9-9--0-0-/9--9-9-9-9--0-0-0--|
d--2--2-p0--0--0--5--5--0--0-/9--9-9-9-9--0-0-/9--9-9-9-9--0-0-0--|

e------------------------------------------|
b--5--5-----3--3--8--8--3--3-----------12--|
g--4--4-----2--2--7--7--2--2-----------11--|
d--2--2-p0--0--0--5--5--0--0-/9--9-9-9-9---|
a--2--2-p0--0--0--5--5--0--0-/9--9-9-9-9---|
d--2--2-p0--0--0--5--5--0--0-/9--9-9-9-9---|

e-----------------------|
b------------------12---|
g------------------11---| x3
d--0-0-0-/9--9-9-9-9----|
a--0-0-0-/9--9-9-9-9----|
d--0-0-0-/9--9-9-9-9----|

e-----------|
b--12b------|
g--11b------|
d--9b-------|
a--9b-------|
d--9b-------|

             x11
e----------------|-------------|
b---12--12--12---|--12---------|
g---11--11--11---|--11---------|
d---9---9---9----|--9----------|
a---9---9---9----|--9----------|
d---9---9---9----|--9----------|

~~~~~~~~~~~~~~~~~~~~~~~~~~~~~~~~~~~~~~~~~~~~~~~~~~~~~~~~~~~~~~~~~~~~~~~
THIRD EYE

Adam Uses a Slide,

Intro played with slide
----------------12---12---12-|
----------------12---12---12-|
-----------12---12---12---12-|
-2/4//7////12---12---12------|
-2/4//7////12---12-----------|
-2/4//7////12---12-----------|

At this part slide up and down at the pickups
-------------------//////-----\\\-////////--|
-------------------//////-----\\\-////////--|
-12\\1////////12//////-----\\\-////////-----|
-12\\1////////12//////-----\\\-////////-----|
-12\\1////////12----------------------------|
-12\\1////////12----------------------------|


-7----7///12-----12/15-----1510---10/12--|
-7----7///12-----12/15-----1510---10/12--|
-7----7///12-----12/15-----1510---10/12--|
-----------------------------------------|
-----------------------------------------|
-----------------------------------------|


-0
-0
-0
--
--
--

Dreaming of that face again.......
--------------------------|
--------------------------|
--------------------------|
--------------------------|
----8-10-----8-10-----5-7-|
-0--------0--------0------|
p.m.____________________

--------------|
--------------|
--------------|
--------------|
---3-5----5-7-|
-0------0-----|
p.m._________


--------------------|
--------------------|
--------------------|
---12-14------14-16-|
--------------------|
-0---------0--------|
p.m._______________


play with slide
---------------------|
---------------------|
---------------------|
---------------------|
-12-----1211--11/12--|
---------------------|

the xxxx stands for pick scraping up or down
---------------------------------------------|
---------------------------------------------|
---------------------------------------------|
-0--xxxxx-----0-xxxxx--------0------/xxxxx---|
-0-----xx-----0------xxx-----0---/xx---------|
-0-------------0---------------0-------------|

solo 1
-----------------------------------|
-----------------------------------|
-----------------------------------|
-7----75--3////12/1310--3/5--8-7---|
-----------------------------------|
-----------------------------------|


-------------------------------------------------|
-------------------------------------------------|
-------------------------------------------------|
-12-10-12-10-12-10-12-10-12-10-12-10-12-10-12-10-|
-------------------------------------------------|
-------------------------------------------------|


------------------------|
------------------------|
------------------------|
------------------------|
-10h12h10h13h12p10p10h13
------------------------


---------------------------------------------|
---------------------------------------------|
---------------------------------------------|
-15p14-14--12h14-15-14-12--10h12-12-15h17-17-|
---------------------------------------------|
---------------------------------------------|

use slide at this part
-0//////////12\\\\
-0//////////12\\\\
-0//////////12\\\\
------------------------|
------------------------|
------------------------|


--------------------|
--------------------|
------------------3-|
--------------------|
-3h5-5-5--3h5-3h5---|
--------------------|


---------------------|
---------------------|
-------------------4-|
---------------------|
-3h5-5-5--3h5-3h5----|
---------------------|


--------------------|
--------------------|
------------------5-|
--------------------|
-3h5-5-5--3h5-3h5---|
--------------------|


-----------------------------|
-----------------------------|
-----------------------------|
--------------------------12-|
-3h5-5-5--3h5-3h5------11----|
--------------------10-------|


--------------|
--------------|
--------------|
-0---------12-|
-0------11----|
-0---10-------|


---------------------------------|
---------------------------------|
---------------------------------|
-0----------12-------0--------12-|
-0-------11----11----0------11---|
-0----10-------------0---10------|


---------------------------|
---------------------------|
-7---7---7---7---7---7---7-|
-6---6---6---6---6---6---6-|
-5---5---5---5---5---5---5-|
-0---0---0---0---0---0---0-|


--
--
--
-0
-0
-0

So good to see you............
------------------------|
------------------------|
------------------------|
-14--14\\-2////-10-10---|
-12--12\\-2////--8--8---|
-12--12\\-2////--8--8---|

Use clean chorus and delay at these parts
Shrouding all the ground around me.....
-------------|
-------------|
-2-2-----3-3-|
-------------|
-------------|
-------------|

Is this holy crow above me.......
-----------------|------------------|
-----------------|------------------|
-2-2-22-2-22-2-22|-3-3-33-3-33-3-33-|
-----------------|------------------|
-----------------|------------------|
-----------------|------------------|


-----------------|------------------|
-3-3-33-3-33-3-33|-4-4-44-4-44-4-44-|
-2-2-22-2-22-2-22|-3-3-33-3-33-3-33-|
-----------------|------------------|
-----------------|------------------|
-----------------|------------------|

kick in distortion
-------------------------------|
-------------------------------|
-------------------------------|
-15-15-15-15-15-15-15-15-15-15-|
-13-13-13-13-13-13-13-13-13-13-|
-13-13-13-13-13-13-13-13-13-13-|

So good to see you. I've missed you so much.
-------------------------|
-------------------------|
-------------------------|
-14-14-1414\-10-10-1010--|
-12-12-1212\--8--8--8-8--|
-12-12-1212\--8--8--8-8--|

Came out to watch you play.
--------------------------------|
--------------------------------|
--------------------------------|
-----14------12------14-----12--|
---12------12------12-----12----|
-12------12------12-----12------|

Why are you running away?
---------------------------------|
---------------------------------|
---------------------------------|
------10------8-------10-------8-|
----8-------8-------8--------8---|
--8-------8-------8--------8-----|

PRYING OPEN MY THIRD EYE!
---------------------|
---------------------|
-7--7--7--7--7--7--7-|
-6--6--6--6--6--6--6-|
-5--5--5--5--5--5--5-|
-0--0--0--0--0--0--0-|

pick scrape down the strings
------------------------------|
------------------------------|
------------------------------|
-\xxxxxxxxxxxxxx--------------|
------------------xxxxxxx\\---|
------------------------------|

So good to see you once again. I thought that you were hiding.
---------------|
---------------|
---------------|
---------------|
---5-7-----3-5-|
-0------0------|
p.m.    p.m.


------------------|
------------------|
------------------|
---12-14----10-12-|
------------------|
-0--------0-------|
p.m.     p.m.

use clean chorus and delay
----------------------------------------------|
-3-3-33-3-3-3-4-4-44-4-4-4-6-6-66-6-6-4-4-6-4-|
-2-2-22-2-2-2-3-3-33-3-3-3-5-5-55-5-5-3-3-5-3-|
----------------------------------------------|
----------------------------------------------|
----------------------------------------------|

solo 2 with slide also use delay and chorus with distortion
-///10-10-1010-10/118-8/13-13-1313-13-1311-11-13-11---|
-///10-10-1010-10/118-8/13-13-1313-13-1311-11-13-11---|
------------------------------------------------------|
------------------------------------------------------|
------------------------------------------------------|
------------------------------------------------------|


--------------------------------------------------------|
-///10-10-1010-10/118-8-8-88-8//13-13-1313-13-13/11-11--|
--------------------------------------------------------|
--------------------------------------------------------|
--------------------------------------------------------|
--------------------------------------------------------|


-///1513/1513-13/15\-10-10-10//13108------|
------------------------------------------|
------------------------------------------|
------------------------------------------|
------------------------------------------|
------------------------------------------|


-----------------------------------------|
-----------------------------------------|
-1210-10-10/12-12-12107/10107------------|
-----------------------------------10/12-|
-----------------------------------------|
-----------------------------------------|

use a very deep bass and treble at this part
---------------------|
---------------------|
---------------------|
-00-0-11-1-3-3h5-5h3-|
-00-0-11-1-3-3h5-5h3-|
-00-0-11-1-3-3h5-5h3-|


-------------------|
-------------------|
-------------------|
-00--0-------------|
-00--0-------------|
-00--0---3h5-5h3-0-|

Prying open my third eye.
------------------|
------------------|
-7------7-------7-|
-6------6-------6-|
-5------5-------5-|
-0------0-------0-|
(note:Third Eye tab is not mine. I had to use someone elses)
~~~~~~~~~~~~~~~~~~~~~~~~~~~~~~~~~~~~~~~~~~~~~~~~~~~~~~~~~~~~~~~~~~~~~~~~~~~~
That's it. I'm pretty sure it's correct.
Suggest correction
Creating personal tab
Creating personal tab
You can edit any tab online and save it as your Personal.

You can edit, replace or remove any tab part or add personal notes – all changes will be seen only by you.

Personal tabs can be accessed anytime from any device, even offline.
Learn more »
comments
print report bad tab
13 comments total. Showing first comments.
0 reply
Aenima42 155 May 03, 2006 06:10 PM

Good Tab?

0 reply
4stringthing 10 May 06, 2006 05:39 AM

good stuff

0 reply
maxgreen 31 May 11, 2006 04:38 PM

not accurate at all

guest
You may want to rate the tab now too:
select rating
Wanna post a correction for this tab? Suggest correction