Oops, an error
Loading. Please wait.

Cold And Ugly Tab

version 1
version 1

Whole song

Interactive

by Tool
16,913 views 18 this week
7 commentsread comments
1 2 3 4 5
accurate
x 8
add to favorites
launch autoscroll
font size
0
reset
how to read this tab
guitar tuner
Tab Pro tools
  • play this tab
  • loop segment
  • change instrument
  • show fretboard
  • metronome
×
Best way to learn
"Cold And Ugly"
Autoscroll
slow
fast
+/-
esc
set tempo
stop
Tool - Cold & Ugly
From the album Opiate
Volcano Records 31027-2
Submitted/transcribed by Matt Reese
Send questions and comments to: jackal2112@hotmail.com

Dropped D tuning (low to high D-A-D-G-B-e respectively)

Notes: Play with overdrive/distortion

"Throw that Bob Marley wannabe mother-f*cker outta here!"

[Riff 1] X4
|----------------------------------------------------------|
|----------------------------------------------------------|
|-----------------------------------------------------5-5--|
|-0---0-0-3p0-0-0---0-0-6p0-5---0---0-0-3p0-0-0---0-0-5-5--|
|-0---0-0-3p0-0-0---0-0-6p0-5---0---0-0-3p0-0-0---0-0-3-3--|
|-0---0-0-3p0-0-0---0-0-6p0-5---0---0-0-3p0-0-0---0-0------|
    PM...     ...   ...             ...     ...   ...

[Fill 1] x1
|--------------------------------------------------------|
|--------------------------------------------------------|
|--------------------------------------------------------|
|-0---0-0-3p0-0-0---0-0-6p0-5---0---0-0-3p0-0-0---/6-5~--|
|-0---0-0-3p0-0-0---0-0-6p0-5---0---0-0-3p0-0-0----------|
|-0---0-0-3p0-0-0---0-0-6p0-5---0---0-0-3p0-0-0----------|
    PM...     ...   ...             ...     ...

[Riff 1] Play w/out palm-muting x1

[Fill 2] x1
|--------------------------------------------------------|
|--------------------------------------------------------|
|-------------------------------------------5------------|
|-/7-7-7-7-7-7-7---7-7-7-5-4----7-7-7-7-7-7--------------|
|--------------------------------------------------------|
|--------------------------------------------------------|

[Verse 1] x1
|-------------------------------7^-----------------------|
|-------6-5~-------------6-5~----------------------------|
|--7~---------5~--5/7------------------------------------|
|--------------------------------------------------------|
|--------------------------------------------------------|
|--------------------------------------------------------|

[Riff 1] x2

[Riff 2] x4<-occationally use A.H. here->        
|--------------------------------------------------------|  
|--------------------------------------------------------|
|--------------------------------------------------------| 
|--0---0-0----------------------3p0----------------------|
|--0---0-0------3---------3p0----------------------------|
|--0---0-0--3h5---5--3h5---------------------------------|

[Riff 1] play w/out palm-muting x1

[Fill 2] x1

[Verse 2] x1
|--------------------------------|------|-----------------|
|--------------------------------|------|-----------------|
|--------------------------------|------|-5-5-5-5-5-5-5-5-|
|-------3-2~----------------3-2--|-Rest-|-5-5-5-5-5-5-5-5-|
|--5~----------5~----(1)/5~------|------|-3-3-3-3-3-3-3-3-|
|--------------------------------|------|-----------------|
 
[Riff 2] x4

[Riff 3] x3
|--------------------------------------------------------|
|--------------------------------------------------------|
|--------------------------------------------------------|
|--0---0-0--53--3-0--3-0---0--0-0--0-53--3-0-3-0-5-----|
|--0---0-0--53--3-0--------0--0-0--0-53--3-0-----------| 
|--0---0-0--53--3-0--------0--0-0--0-53--3-0-----------|
 PM.......                     ...

//Rest for a few measures while bass plays

[Riff 4] x6
|--------------------------------|
|--------------------------------|
|--------------------------------|
|--3h5-3p0--3h5-3p0--0-0-0-------|
|--3h5-3p0--3h5-3p0--0-0-0-5-3-0-|
|--3h5-3p0--3h5-3p0--0-0-0-------|

[Solo] Break out the most insane overdrive you have!
|---------------------------------------------------|
|-------------------------10h12-12^-10-10-----------|
|-------10h12-10h12p10h12-----------------12p10-12^-|
|--10h12--------------------------------------------|
|---------------------------------------------------|
|---------------------------------------------------|

|--------------------------------------------------------|
|--Just improb here----------------------11----11--9-----|
|--it's too crazy to----12^^^^^-12^10----11----11--9-----|
|------tab out---------------------------9-----9---7-----|
|--------------------------------------------------------|
|--------------------------------------------------------|

|---10101010101010101010----|
|---10101010101010101010----|
|---------------------------|
|---------------------------|  
|---------------------------|
|---------------------------|

//Guitar rests here for a few measures

"Underneath her skin and jewelry..."

Come back in with a pick scrape on the low D string and then play...

[Riff 1] x2

[Riff 2] x7

[Outro] x1
|--------------------------------------------------------|
|-------------------------------6------------------------|  
|---------------5---------5--------7---------------------|
|--0--0-0--3-5-----5-3-5-----7----------7--10--12--10--7-| 
|--0--0-0-------------------------------5---8--10---8--5-|
|--0--0-0------------------------------------------------|
comments
print report bad tab
7 comments total. Showing first comments.
0 reply
rmwaters3000 wrote on May 4 2005, 12:00 am

Perfect tab

0 reply
Brandon_leigh wrote on June 9 2007, 02:49 am

tab for Eadgbe plz, I have a FL system so it makes Dadgbe very hard :(

0 reply
dostacysmom69 wrote on August 20 2007, 04:07 pm

since there is open on low D string that might be kind of hard....

I want to post or [tab]
guest
You may want to rate the tab now too:
select rating
Please do not post tabs as comments. Select "correction" instead!