Oops, an error
Loading. Please wait.

Crawl Away tab

version 2
version 2

Whole song

Interactive

by Tool
2,421 views 1 this week
2 commentsread comments
1 2 3 4 5
3 more votes to show rating
add to favorites
×
Save as Personal and add changes to this tab that will be seen only by you. Learn more ›
×
You can save this tab as Personal to edit and correct it or add notes. All changes will be seen only by you. Learn more »
launch autoscroll
font size
0
reset
how to read this tab
guitar tuner
edit
Autoscroll
slow
fast
+/-
esc
set tempo
stop
Author
Song: Crawl Away
Artist: Tool
Album: Undertow
Tabbed By: Nathan Zwiener

Tuning: Standard

Intro                                                   x3
|-------------------------|-------------------------------|---------------------------|
|-------------------------|-------------------------------|---------------------------|
|-------------------------|----------3----6------3----3---|----------3----6b7~--r--\\-|
|-2~--(bend-and-feedback)-|-2/4--4-4----4----4-4----4---4-|-2/4--4-4----4-------------|
|-------------------------|-------------------------------|---------------------------|
|-------------------------|-------------------------------|---------------------------|
                                                   __________  _______
 Verse pt. 2 (0:37) Do this whole thing twice     |1.         |2.
|-------------------------------------------------|-----------|-------|
|-------------------------------------------------|-----------|-------|
|-------------------------------------------------|-----------|-------|
|-------------------------------------------------|-----------|-------|
|-4---4-4--4--4-4--4--4--4-4-4-4---4-4--4--4-4--4-|-5~--5-5-5-|-5-4-2-|
|-0h2-2-2--2--0-2--2--2--2-2-2-0h2-2-2--2--0-2--2-|-----------|-------|
pm    . .     .              .     . .     .     

 Post-Verse 1      
|------------------------------------------------------------------------------------------------|
|------------------------------------------------------------------------------------------------|
|------------------------------------------------------------------------------------------------|
|-9----9---9-9-9--999-\---------------------------------9----9---9-9-9-999--11--11---11-11-11b-r-|
|-7----7---7-7-7--777-\--4---4-4--4--4-4--4--5~--5-5-5--7----7---7-7-7-777-----------------------|
|---00---0---------------0h2-2-2--2--0-2--2---------------00---0--------------99---9-------------|
pm  ..   .         ..        . .     .                    ..   .              ..   .

 Post-Verse Lead (1:13)
|------------------------------------------------------16~-b17-\--------------------------|
|-----------------------------------------------------------------------------------------|
|-----------------------------------------------------------------------------------------|
|-11--11-11-11--11-9--11--11-11-11--11-9--9/11-11-11-9-----------11---11---11--11-9-b--\--|
|-------------------------------------------------------------------9----9----------------|
|-----------------------------------------------------------------------------------------|

  *rest 3 bars and 3 counts*
                                                          __________  _______
 Verse pt. 1 (1:38)                                      |1.         |2.
|----------|---------------------------------------------|-----------|--------|
|-(pickup)-|---------------------------------------------|-----------|--------|
|----------|---------------------------------------------|-----------|--------|
|----------|---------------------------------------------|-----------|--------|
|-x-5-4-2--|---------------------------------------------|-5~--5-5-5-|-5p4p2--|
|----------|-0h2-x-x-2--0-2x2x2-2--2-2-0h2-x-x-2--0-2x2x-|-----------|--------|
pm           . . . . .  . ..... .  . . . . . . .  . ....
                                                   __________  _______
 Verse pt. 2 (1:50)                               |1.         |2.
|-------------------------------------------------|-----------|-------|
|-------------------------------------------------|-----------|-------|
|-------------------------------------------------|-----------|-------|
|-------------------------------------------------|-----------|-------|
|-4---4-4--4--4-4--4--4--4-4-4-4---4-4--4--4-4--4-|-5~--5-5-5-|-5-4-2-|
|-0h2-2-2--2--0-2--2--2--2-2-2-0h2-2-2--2--0-2--2-|-----------|-------|
pm    . .     .              .     . .     .

 Post-Verse 2                (Play 4x)
|--------------------------------------------------------------|
|--------------------------------------------------------------|
|--------------------------------------------------------------|
|--------------------------------------------------------------|
|---4---7---10--9~--9999999-x----------------------------------|
|---2---5---8---7~--7777777-x----------------------------------|
pm                  .......

 Verse pt. 2 (1:50)
|--------------------------------------------------------------|
|--------------------------------------------------------------|
|--------------------------------------------------------------|
|--------------------------------------------------------------|
|-4---4-4--4--4-4--4--4--4-4-4-4---4-4--4--4-4--4--5~--5-5-5---|
|-0h2-2-2--2--0-2--2--2--2-2-2-0h2-2-2--2--0-2--2--------------|
pm    . .     .                    . .     .

 Post-Verse                      
|--------------------------------------------------|
|--7+--7+---7+-7+-7+-7+7+7+--7+--7+----7b9~--r--\--|
|--------------------------------------------------|
|--------------------------------------------------|
|--------------------------------------------------|
|--------------------------------------------------|

  *rest 3 bars and 3 counts*
 
 Verse pt. 1 (2:41)
|----------|------------------------------------------------------------|
|-(pickup)-|------------------------------------------------------------|
|----------|------------------------------------------------------------|
|----------|---------------------------2h4------------------------------|
|-x-5-4-2--|-4---x-x--4--x-x--4x2x4~-4-----4---x-x-4-x-x-4x4x-5~--5-5-5-|
|----------|-0h2-x-x--2--x-x--2x-----------0h2-x-x-2-x-x-2x2x-----------|
pm           .        .                    .       .     . .

 Verse pt. 1 (cont)
|--------------------------------------------------------|
|--------------------------------------------------------|
|--------------------------------------------------------|
|--------------------------------------------------------|
|-4---4-4--4--4-4--4--4--4-4-4-4---4-4--4--4-4--4--5p4p2-|
|-0h2-2-2--2--0-2--2--2--2-2-2-0h2-2-2--2--0-2--2--------|
pm    . .     . .          .       . .     .
                                                    __________  _______
 Verse pt. 2 (2:54)                                |1.         |2.
|--------------------------------------------------|-----------|-------|
|--------------------------------------------------|-----------|-------|
|--------------------------------------------------|-----------|-------|
|--------------------------------------------------|-----------|-------|
|-4---4-4--4--4-4--4--4--4-4-4-4---4-4--4--4-4--4--|-5~--5-5-5-|-5-4-2-|
|-0h2-2-2--2--0-2--2--2--2-2-2-0h2-2-2--2--0-2--2--|-----------|-------|
pm    . .     .                    . .     .

 Post-Verse 2 (3:07)                (Play 4x)
|--------------------------------------------------------------|
|--------------------------------------------------------------|
|--------------------------------------------------------------|
|--------------------------------------------------------------|
|---4---7---10--9~--9999999-x----------------------------------|
|---2---5---8---7~--7777777-x----------------------------------|
pm                  .......

 Chorus   (3:21)                                                  x4
|--------------------------------------------------------------------|--------------------------------|
|--------------------------------------------------------------------|--------------------------------|
|-------------------------------(drums-speed-up)---------------------|--------------------------------|
|---------------------------------------|----------------------------|--------------------------------|
|--5-5-5-2-4----5-5-5-2-4----5-5-5-2-4--V--5-5-5-2-4--x\\--5-5-5-2-4-|--xxxx-4-xxxx-4-xxxx-5-5-5-4-4--|
|--3-3-3-0-2----3-3-3-0-2----3-3-3-0-2-----3-3-3-0-2--x\\--3-3-3-0-2-|--xxxx-2-xxxx-2-xxxx-3-3-3-0-2--|

 Interlude (double time)
|--------------------------------------------------------------------|
|--------------------------------------------------------------------|
|--------------------------------------------------------------------|
|-------4T----------------------------------------------------4b~~r--|
|-4~----xT-(fade-palm-mute)-4--11--12--9--11--2--4--4---4---4--------|
|-0h2~--2T------------------2--9---10--7--9---0--2--0h2-0h2-0--------|
 pm     .
                                                   __________  _______
 Verse pt. 2 (4:09)     -     End Double Time     |1.         |2.
|-------------------------------------------------|-----------|-------|
|-------------------------------------------------|-----------|-------|
|-------------------------------------------------|-----------|-------|
|-------------------------------------------------|-----------|-------|
|-4---4-4--4--4-4--4--4--4-4-4-4---4-4--4--4-4--4-|-5~--5-5-5-|-5-4-2-|
|-0h2-2-2--2--0-2--2--2--2-2-2-0h2-2-2--2--0-2--2-|-----------|-------|
pm    . .     .                    . .     .

 Post-Verse 1 (4:21)
|-----------------------------------------------------------------------|
|----------------------------------------7b~r---------------------------|
|-----------------------------------------------------------------------|
|-9----9---9-9-9--999-----------------4~------9--9-9-9--9-9--9--9--999--|
|-7----7---7-7-7--777--4---4-4-4--4-----------7--7-7-7--7-7--7--7--777--|
|---00---0-------------0h2-2-2-2--0-2---------0~------------------------|
pm  ..   .          .      . .    .

 Post-Verse 1 (cont)            *pull fretboard towards you to bend harmonic*
|----------------------------------------------------------------------------------------|
|------------------------------------------------------------------7+b8-(heavy-feedback)-|
|----------------------------------------------------------------------------------------|
|-4-2h4-5p4-2--5~-p4b5rbrbr~--brbr--4~-(wide-vibrato-and-feedback)-----------------------|
|----------------------------------------------------------------------------------------|
|----------------------------------------------------------------------------------------|
                                                         _________  _________
 Verse pt. 1 (4:46)                                     |1.        |2.
|-------------------------------------------------------|----------|---------|
|-------------------------------------------------------|----------|---------|
|-------------------------------------------------------|----------|---------|
|-------------------------------------------------------|----------|---------|
|-------------------------------------------------------|-5~-5-5-5-|-4-4-4-4-|
|-xxx-0h2-x-x-2-x-x-0h2x2x2-2--2-2-0h2-x-x-2-x-x-0-2x2x-|----------|-2-2-2-2-|
pm    . . . . . . . . ..... .  . . . . . . . . . . ....              cresc.

|-------------------------------------------------|------------|-------|
|-------------------------------------------------|------------|-------|
|-------------------------------------------------|------------|-------|
|-------------------------------------------------|------------|-------|
|-4---4-4--4--4-4--4--4--4-4-4-4---4-4--4--4-4--4-|-/5~--5-5-5-|-5-4-2-|
|-0h2-2-2--2--0-2--2--2--2-2-2-0h2-2-2--2--0-2--2-|------------|-------|
pm    . .     .                    . .     .

 Post-Verse 2 (5:10)                          x4
|-----------------------------------------------|-----------|
|-----------------------------------------------|-----------|
|-----------------------------------------------|-----------|
|-----------------------------------------------|-----------| Innnnnnnn!!!
|---4---7---10--9~--9999999-x-------------------|-5-5-5-2-4-|    (end)
|---2---5---8---7~--7777777-x-------------------|-3-3-3-0-2-|
pm                  .......

That's all folks! Please give me feedback.
Also, auto scroll is very helpful on this tab. :)
Suggest correction
Creating personal tab
Creating personal tab
You can edit any tab online and save it as your Personal.

You can edit, replace or remove any tab part or add personal notes – all changes will be seen only by you.

Personal tabs can be accessed anytime from any device, even offline.
Learn more »
Give kudos to tab author, rate the tab!
1 2 3 4 5
comments
print report bad tab
2 comments total.
0 reply
browar 1,097 Sep 08, 2007 11:44 AM

It's in Drop D, Honey Bunny.

0 reply
thunder77 499 Sep 15, 2007 02:30 PM

I know most Tool songs are but I interpreted it this way.

guest
You may want to rate the tab now too:
select rating
Wanna post a correction for this tab? Suggest correction