Oops, an error
Loading. Please wait.

Demon Cleaner tab

by Tool
418 views 1 this week
1 commentread comment
1 2 3 4 5
1 last vote to show rating
add to favorites
×
Save as Personal and add changes to this tab that will be seen only by you. Learn more ›
×
You can save this tab as Personal to edit and correct it or add notes. All changes will be seen only by you. Learn more »
launch autoscroll
font size
0
reset
how to read this tab
guitar tuner
edit
Autoscroll
slow
fast
+/-
esc
set tempo
stop
[Bass Intro]

e|---------------------------------------------------------------------------|
B|---------------------------------------------------------------------------|
G|---------------------------------------------------------------------------|
D|---------------------------------------------------------------------------| x12
A|--4p1-1--4p1-1--4p1--1-4p1--1--4p1-1-1-------------------------------------|
D|---------------------------------------------------------------------------|


[Intro]

e|---------------------------------------------------------------------------|
B|---------------------------------------------------------------------------|
G|-----8-6---8-6-8-/10--11-10-8--10------------------------------------------|
D|----------------------------------8----------------------------------------| x3
A|---------------------------------------------------------------------------|
D|--8------------------------------------------------------------------------|

e|---------------------------------------------------------------------------|
B|---------------------------------------------------------------------------|
G|-----8-6---8-6-8-/10--11-10---11-10---11-10\-------------------------------|
D|---------------------------------------------------------------------------|
A|---------------------------------------------------------------------------|
D|--8------------------------------------------------------------------------|


[Verse]

e|---------------------------------------------------------------------------|
B|---------------------------------------------------------------------------|
G|---------------------------------------------------------------------------|
D|--8-x-x-----8-x-x-8-8/11---------------------------------------------------| x3
A|--8-x-x-6h8-8-x-x-8-8/11---------------------------------------------------|
D|--8-x-x-----8-x-x-8-8/11---------------------------------------------------|

e|---------------------------------------------------------------------------|
B|---------------------------------------------------------------------------|
G|---------------------------------------------------------------------------|
D|--8-x-x-----8----8-----8---------------------------------------------------|
A|--8-x-x-6h8-8----8-6h8-----------------------------------------------------|
D|--8-x-x-- --8----8---------------------------------------------------------|


[First Chorus]

e|---------------------------------------------------------------------------|
B|---------------------------------------------------------------------------|
G|-----6-4--6-4-6-------6-4--6-4-6-------4-3--4-3~--------4-3--4-3~----------|
D|---------------------------------------------------------------------------| x2
A|--1--------------1------------------1----------------1---------------------|
D|---------------------------------------------------------------------------|


[Second Chorus]

e|---------------------------------------------------------------------------|
B|---------------------------------------------------------------------------|
G|-----8-6---8-6-8-/10--11-10-8--10------------------------------------------|
D|----------------------------------8----------------------------------------| x2
A|---------------------------------------------------------------------------|
D|--8------------------------------------------------------------------------|

e|---------------------------------------------------------------------------|
B|---------------------------------------------------------------------------|
G|-----8-6---8-6-8-/10--11-10-8--10----------8-10-8-10~-10b12r10-10~---------|
D|----------------------------------8---8-11---------------------------------|
A|---------------------------------------------------------------------------|
D|--8------------------------------------------------------------------------|


[Third Chorus]

e|---------------------------------------------------------------------------|
B|---------------------------------------------------------------------------|
G|---------------------------------------------------------------------------|
D|--8--8-8-8--8-8-8--8-8-8---------------------------------------------------| x12
A|---------------------------------------------------------------------------|
D|--8--8-8-8--8-8-8--8-8-8---------------------------------------------------|


[Bridge]

e|---------------------------------------------------------------------------|
B|---------------------------------------------------------------------------|
G|---------------------------------------------------------------------------|
D|--8--8-8-8--8-8-8--8-8-8--8--8-8-8--8-8-8--8-8-8---------------------------|
A|---------------------------------------------------------------------------|
D|--8--8-8-8--8-8-8--8-8-8--6--6-6-6--6-6-6--6-6-6---------------------------|

e|---------------------------------------------------------------------------|
B|---------------------------------------------------------------------------|
G|---------------------------------------------------------------------------|
D|--4--4-4-4--4-4-4--4-4-4--8--8-8-8--8-8-8--8-8-8---------------------------|
A|---------------------------------------------------------------------------|
D|--4--4-4-4--4-4-4--4-4-4--8--8-8-8--8-8-8--8-8-8---------------------------|

Repeat until solo begins, you can gradually transition the octaves into
full chords for a nice dynamic effect.


************************************

| x  Dead note
| h  Hammer-on
| p  Pull-off
| r  Release
| b  Bend
| /  Slide up
| \  Slide down
| ~  Vibrato

************************************
Suggest correction
Creating personal tab
Creating personal tab
You can edit any tab online and save it as your Personal.

You can edit, replace or remove any tab part or add personal notes – all changes will be seen only by you.

Personal tabs can be accessed anytime from any device, even offline.
Learn more »
Give kudos to tab author, rate the tab!
1 2 3 4 5
comments
print report bad tab
1 comment total.
-1 reply
xXD347HXx 90 Aug 01, 2016 06:26 PM

Wow, was the uploader of the tab too stupid or too lazy to include the solo?

guest
You may want to rate the tab now too:
select rating
Wanna post a correction for this tab? Suggest correction