Oops, an error
Loading. Please wait.

Descending Tab

version 1
version 1

Live

  • This is a guitar tab from a live version of the so... Show more

Whole song

by Tool
166 views 21 this week
no commentswrite comment
1 2 3 4 5
2 more votes to show rating
add to favorites
launch autoscroll
font size
0
reset
how to read this tab
guitar tuner
Autoscroll
slow
fast
+/-
esc
set tempo
stop
Help us to improve Ultimate-Guitar.com Take our survey!
×
Author
Difficulty
Tuning
novice
D A D G B E
About this tab version
This is a guitar tab from a live version of the song Descending by Tool, played by them in Halloween 2015. This song will probably appear in their new album. Was this info helpful? Yes No
Tool - Descending (Live Halloween 2015) - https://www.youtube.com/watch?v=_LvAPabwDGg


Adam Jones plays three times this:

e|----------------------------------|
B|----3-----------------------------|
G|--5--------2-2----2-0-------------| x4
D|---------5------3-----0-----------|
A|----------------------------------|
E|----------------------------------|

e|----------------------------------|
B|----------------------------------|
G|----2-----2-----2-------2----2-0--| x2
D|--0-----2-----3-------5----3-----0|
A|----------------------------------|
E|----------------------------------|


Then, he plays these chords(using the volume knob):

e|----------------------------------|
B|----------------------------------|
G|----------------------------------| x3
D|--0-------3------8----5-----------|
A|--0-------3------8----5-----------|
E|--0-------3------8----5-----------|


e|----------------------------------|
B|----------------------------------|
G|----------------------------------|
D|--0-------3------8----17----------|
A|--0-------3------8----17----------|
E|--0-------3------8----17----------|


The next think we hear is something like that(with palm mute and delay):

  PM                                                         .
e|------------------------------------------------------------|
B|-10------------11----11-10--------------------11------------|
G|----10-10---------10-------10-10-----12-----------10--------|x6
D|----------12-12--------------------10---10-10--------12-12--|
A|------------------------------------------------------------|
E|------------------------------------------------------------|


At the end Jones plays(with palm mute only on the second chord):

     PM.
e|----------|
B|----------|
G|----------|x15
D|--0-0--0--|
A|--0-0--0--|
E|--0-0--0--|

     PM.
e|----------|
B|----------|
G|----------|
D|--0-0-----|
A|--0-0-----|
E|--0-0-----|


************************************

| PM  Palm mute

************************************
Suggest correction
Give kudos to tab author, rate the tab!
1 2 3 4 5
comments
print report bad tab
guest
You may want to rate the tab now too:
select rating
Wanna post a correction for this tab? Suggest correction