Oops, an error
Loading. Please wait.

Descending Tab

version 1
version 1

Whole song

by Tool
109 views 12 this week
no commentswrite comment
1 2 3 4 5
x 4
add to favorites
launch autoscroll
font size
0
reset
how to read this tab
guitar tuner
Autoscroll
slow
fast
+/-
esc
set tempo
stop
Help us to improve Ultimate-Guitar.com Take our survey!
×
Author
Difficulty
Tuning
novice
D A D G B E
[Intro]

E|-------------------------------------------|
B|-------------------------------------------|
G|-5-7---------------------------------------| x4
D|-------5-77---7-5-0------------------------|
A|-----------8-------------------------------|
D|-------------------------------------------|

[2nd part]

E|-------------------------------------------|
B|-------------------------------------------| x2
G|-------------------------------------------|
D|---7-----7----7-----77---7-5-0-------------|
A|-5------7----8----9---8--------------------|
D|-------------------------------------------|


[Intro]

E|-------------------------------------------|
B|-------------------------------------------|
G|-5-7---------------------------------------| x4
D|-------5-77---7-5-0------------------------|
A|-----------8-------------------------------|
D|-------------------------------------------|



[Intro]

E|-------------------------------------------|
B|-------------------------------------------|
G|-5-7-----------------5-7-------------------| x4
D|-------5-77---7-5-0---------5-77---7-5-0---|
A|-----------8------------------8------------|
D|-------------------------------------------|

[2nd part]

E|-------------------------------------------|
B|-------------------------------------------| x2
G|-------------------------------------------|
D|---7-----7----7-----77---7-5-0-------------|
A|-5------7----8----9---8--------------------|
D|-------------------------------------------|

[3rd part]

E|------------------------------------------|
B|------------------------------------------| x4
G|------------------------------------------|
D|-0--------------3-----8--5----------------|
A|-0--------------3-----8--5----------------|
D|-0--------------3-----8--5----------------|


[Solo]

E|--------------------------------------------------|
B|--------------------------------------------------| x6
G|-------14------------15------14------12----15-----|
D|-12-15---12-15-12-15---12-15-----12-----------15--|
A|----------------------------------------15--------|
D|--------------------------------------------------|


[Outro]

I'm not sure about this part...


E|--------------------------------------------|
B|--------------------------3---------3-------| x4
G|--------------------------2---------2-------|
D|-0-------0-0----------0---0----0----0-------|
A|-0-------0-0----------0--------0------------|
D|-0-------0-0----------0--------0------------|
Suggest correction
comments
print report bad tab
guest
You may want to rate the tab now too:
select rating
Wanna post a correction for this tab? Suggest correction