Oops, an error
Loading. Please wait.

Disposition bass

version 3
version 3

Whole song

Interactive

by Tool
14,850 views 42 this week
3 commentsread comments
1 2 3 4 5
x 6
add to favorites
×
Save as Personal and add changes to this tab that will be seen only by you. Learn more ›
×
You can save this tab as Personal to edit and correct it or add notes. All changes will be seen only by you. Learn more »
launch autoscroll
font size
0
reset
guitar tuner
edit
Autoscroll
slow
fast
+/-
esc
set tempo
stop
Author
Difficulty
Unregistered
intermediate
G|-----------<7>----<5>----------------<7>------------------------|
D|----<9>-------------------0-----------------<7>---------16------|
A|--7------7------7------5----------7------7-------7-/-14----14---| x6
D|-----------------------------0----------------------------------|

G|--0--2--2-----------0--2--2-------------------|
D|-----------2--2--2-------------2--2—--2^--2*--|
A|----------------------------------------------|
D|----------------------------------------------|

G|--0--2--2---------------0--2—2--|
D|-------------2--2—2-------------|
A|--------------------------------|
D|--------------------------------|
                    
G|----------------14*--|--------------------|
D|-----16-16^----------|-----16—16**--16**--|
A|--14--------14-------|--14----------------|  x6
D|---------------------|--------------------|
 
                    x3
G|----------------14*--|---------------------|
D|-----16-16^----------|-----16—16^-----16*--|
A|--14--------14-------|--14--------14-------|  x3
D|---------------------|---------------------|
 
                    x2
G|----------------14*--|---------------------|
D|-----16-16^----------|-----16—16^-----16*--|
A|--14--------14-------|--14--------14-------|  x2
D|---------------------|---------------------|
  
G|----------------14*----------------------|
D|-----16-16^---------------16—---16-------|
A|--14--------14---------14----14----14----|
D|-----------------------------------------|

G|--0--2--2-----------0--2--2-------------------|
D|-----------2--2--2-------------2--2—--2^--2*--|
A|----------------------------------------------|
D|----------------------------------------------|

G|--0--2--2---------------0--2—2--|
D|-------------2--2—2-------------|
A|--------------------------------|
D|--------------------------------|

G|----------------14*--|---------------------|
D|-----16-16^----------|-----16—16^-----16*--|
A|--14--------14-------|--14--------14-------|  x2
D|---------------------|---------------------|
                     
G|----------------14*--|--------------------|
D|-----16-16^----------|-----16—16**--16**--|
A|--14--------14-------|--14----------------|   x2
D|---------------------|--------------------|
                     
G|----------------14*--|---------------------|
D|-----16-16^----------|-----16—16^-----16*--|
A|--14--------14-------|--14--------14-------|  x4  
D|---------------------|---------------------|
                    
G|----------------14*--|----------------------------------------|
D|-----16-16^----------|-----16—16^-----16*------16—---16-------|
A|--14--------14-------|--14--------14--------14----14----14----| x2 
D|---------------------|----------------------------------------|
 
G|-----------<7>----<5>----------------<7>------------------------|
D|----<9>-------------------0-----------------<7>---------16------|
A|--7------7------7------5----------7------7-------7-/-14----14---| x6
D|-----------------------------0----------------------------------|
 
[quietly until song ends]
G|--------------|
D|------16------|
A|---14----14---| 
D|--------------|

************************************

| /  Slide up
| *  Natural harmonic
| <7> - natural harmonic

************************************

            
            
Suggest correction
Creating personal tab
Creating personal tab
You can edit any tab online and save it as your Personal.

You can edit, replace or remove any tab part or add personal notes – all changes will be seen only by you.

Personal tabs can be accessed anytime from any device, even offline.
Learn more »
comments
print report bad tab
3 comments total.
0 reply
robotfrom94 314 Apr 29, 2014 10:18 AM

Great tab; my only problem is I can't get the 9th fret D and 5th fret G harmonics to sound very much

guest
Wanna post a correction for this tab? Suggest correction