Oops, an error
Loading. Please wait.

Eon Blue Apocalypse Tab

version 3
version 3

Whole song

Interactive

by Tool
1,925 views 6 this week
1 commentread comment
1 2 3 4 5
x 3
add to favorites
×
Save as Personal and add changes to this tab that will be seen only by you. Learn more ›
×
You can save this tab as Personal to edit and correct it or add notes. All changes will be seen only by you. Learn more »
save as personal
new!
launch autoscroll
font size
0
reset
how to read this tab
guitar tuner
Autoscroll
slow
fast
+/-
esc
set tempo
stop
Author
I think this is one of the best lead-in songs. Its best to switch to the bridge
pick-up and pick extremely close to the bridge to give it the that pop.
Put some reverb and delay with the threshold up high.

-----------------------------------------------------------------------------
                             Eon Blue Apocalypse - Tool
-----------------------------------------------------------------------------
Tabbed by:Kyle Mandes
Email:deftones.passenger@gmail.com

THE LEDGEND IS BELLOW THE TAB
Tuning:Drop-D (DADGBE)

e|---------------------------------------------------| 
B|---------------------------------------------------|
G|---------------------------------------------------|
D|000000000000000000000000000000000000000000000000000|
A|---h3-h5---h3-h5-----(3)/8---h3-h5---h3-h5---------|
D|----------------h3-h5----------------------h3-h5-p0|
   
    


e|-------------------------------------------------|
B|-------------------------------------------------|
G|-------------------------------------------------|
D|-8p7-7~~~>>>>>>>>>>>>>>>--3/5-5/7-7\3~~~~~~~~~~~~|
A|-------------------------------------------------|
D|------------------------------------------0>>>>>>|
                                            
e|--------------------------------------------------------------------------|
B|--------------------------------------------------------------------------|
G|----------------------------------------0-------0--------------------2>>>>|
D|-8p7-7~~~>>>>>>>>>>>>>>>--3/5-5/7-7\5-------0-------0---------0-----0>>>>>|
A|--------------------------------------6---6---6---6---6------------0?>>>>>|
D|>>>>>>>>>>>>>>>>>>>>>>>>>>>>>>>>>>>>>>>>>>>>>>>>>>>>>>>>>>8-7-----0?>>>>>>|
                               
=============================================================================
Here's a bit of The Patient too.
=============================================================================

e|-------------------|
B|-------------------|
G|-------------------|
D|---0-2-0-2---2---2-| first bit. 
A|-----------2---0---|
D|-3>>>>0------------|
PM|__________________|
e|------------------------------------------------------------|
B|------------------------------------------------------------|
G|------------------------------------------------------------|
D|---------2---------2---------2---------2----------2~~~~~~~~~|
A|-0-3-5-0---0-3-5-0---0-3-5-0---0-3-5-0---0-3-5-0------------|
D|------------------------------------------------------------|
 PM|______________________________________________|
Then Repeat the first bar, then the second, then this: 


e|------------------------------------------------------------|
B|------------------------------------------------------------|
G|---------2---------2---------2---------2----------2~~~~~~~~~|
D|-0-3-5-0---0-3-5-0---0-3-5-0---0-3-5-0---0-3-5-0------------|
A|------------------------------------------------------------|
D|------------------------------------------------------------|
PM|_______________________________________________|
Then(distorted):

e|--|----------------|
B|--|----------------|
G|--|----------------| 
D|-3|0-5/7-7h8p7\5-3-| 
A|-3|0-5/7-7h8p7\5-3-|
D|-3|0-5/7-7h8p7\5-3-|


| >> Hold
| /  slide up
| \  slide down
| h  hammer-on
| p  pull-off
| ~  vibrato
| +  harmonic
| x  Mute note

=============================================================================
Thank you, i hope you enjoy my work. please email me with comments, 
corrections or whatever. enjoy. ( deftones.passenger@gmail.com )
=============================================================================
KYLE MANDES \m/{(>.<)}\m/
Suggest correction
Give kudos to tab author, rate the tab!
1 2 3 4 5
comments
print report bad tab
1 comment total.
0 reply
Explicit User 40 Jul 23, 2008 03:01 PM

well, i just went back over his thing. i made a few errors.

first section is supposed to be a slide to 8 not seven.

and the six open six open thing is supposed to be 8 on the D not 6.

guest
You may want to rate the tab now too:
select rating
Wanna post a correction for this tab? Suggest correction