Oops, an error
Loading. Please wait.

Eulogy tab

version 1
version 1

Whole song

Interactive

by Tool
19,262 views 12 this week
5 commentsread comments
1 2 3 4 5
x 7
add to favorites
×
Save as Personal and add changes to this tab that will be seen only by you. Learn more ›
×
You can save this tab as Personal to edit and correct it or add notes. All changes will be seen only by you. Learn more »
launch autoscroll
font size
0
reset
how to read this tab
guitar tuner
backing track
0:00
0:00
edit
Autoscroll
slow
fast
+/-
esc
set tempo
stop
Dropped D Tuning

/ above number-bend       PM-palm mute

All figures are written out only once (no repeats written)


  RHYTHM FIG.1                 FIG. 2
 E|-------------|            E|-------------------------------------------|
 B|-------------|            B|-------------------------------------------|
 G|-------------|            G|-------------------------------------------|
 D|----2---2----|            D|-------------------------------------------|
 A|----2---2----|            A|-------------------------------------------|
 E|----2---2----|            E|^×2-2-2-2---2-2-2-2---0-2-3-2-0-0----------|
        PM                          PM====================

   FIG. 3 first time         FIG.3   second time
 E|-------------------------|---------------------------------|
 B|-------------------------|---------------------------------|
 G|-------------------------|---------------------------------|
 D|---2-2-2-2----2-2-2-2----|-2-2-2-2^×2-2-2-2^×2-3-0---------|
 A|---2-2-2-2----2-2-2-2----|-2-2-2-2^×2-2-2-2^×2-3-0---------|
 E|^×2-2-2-2----2-2-2-2-----|-2-2-2-2^×2-2-2-2^×2-3-0---------|
      PM=============

   FIG.4
 E|--------------------------------------------------------------|
 B|--------------------------------------------------------------|
 G|--------------------------------------------------------------|
 D|---7---9----0^×2-2---0-2-2-0-0-2-2---5-5-5-5-5--9-------------|
 A|---7---9----0^×2-2---0-2-2-0-0-2-2---5-5-5-5-5--9-------------|
 E|---7---9----0^×2-2^×0-2-2-0-0-2-2---5-5-5-5-5^×9--------------|

 E|-------------------------------------------------|
 B|-------------------------------------------------|
 G|-------------------------------------------------|
 D|0^×2-2---0-2-2-0-0-2-2---7-7-7-7-7--9------------|
 A|0^×2-2---0-2-2-0-0-2-2---7-7-7-7-7--9------------|
 E|0^×2-2^×0-2-2-0-0-2-2---7-7-7-7-7^×9-------------|

   FIG.5
 E|----------------|
 B|----------------|
 G|----------------|
 D|-5^×9^×7--9-----|
 A|-5^×9^×7--9-----|
 E|-5^×9^×7^×9-----|

   FIG.6
 E|-------------------------------|
 B|-------------------------------|
 G|--------------5----------------|
 D|^×0-2-2-0--5-5^×5-5-6-0--------|
 A|^×0-2-2-0--3-5^×5-5-6-0--------|
 E|^×0-2-2-0----5^×5-5-6-0--------|

   FIG.7
 E|--------2----|
 B|-----0-------|
 G|-------------|
 D|^×2----------|
 A|-------------|
 E|-------------|

   FIG.8
 E|------------------------------|
 B|------------------------------|
 G|------------------------------|
 D|^×0-2---0---3--0-5^×0-1-------|
 A|^×0-2---0---3^×0-5^×0-1-------|
 E|^×0-2---0---3^×0-5^×0-1-------|

   FIG.9
 E|---------------------|
 B|---------------------|
 G|---4----4^×5---------|
 D|^×4----4^×5--5-------|
 A|^×2----2^×3--5-------|
 E|----------------5----|

   FIG.10
 E|-----------------------|
 B|-----------------------|
 G|-------/------/--------|
 D|-------4-----5^×4------|
 A|-----2-----0-------5---|
 E|^×2-----0--------------|

   FIG.11
 E|----------|
 B|----------|
 G|----------|
 D|-2-2-2-2--|
 A|-2-2-2-2--|
 E|-2-2-2-2--|

            
            
Suggest correction
Creating personal tab
Creating personal tab
You can edit any tab online and save it as your Personal.

You can edit, replace or remove any tab part or add personal notes – all changes will be seen only by you.

Personal tabs can be accessed anytime from any device, even offline.
Learn more »
comments
print report bad tab
5 comments total. Showing first comments.
0 reply
tool_aenema 10 Apr 28, 2003 08:00 PM

Dude I thought you said this was in Dropped D! It in Standard tuning.

0 reply
tool_aenema 10 Apr 28, 2003 08:00 PM

I meant to say you tabbed it in standard tuning

0 reply
tooler 10 Aug 21, 2003 08:00 PM

great tab!

guest
Wanna post a correction for this tab? Suggest correction