Oops, an error
Loading. Please wait.

Eulogy Tab

version 4
version 4

Whole song

Interactive

by Tool
70,351 views 117 this week
10 commentsread comments
1 2 3 4 5
excellent!
x 47
add to favorites
launch autoscroll
font size
0
reset
how to read this tab
guitar tuner
Autoscroll
slow
fast
+/-
esc
set tempo
stop
Help us to improve Ultimate-Guitar.com Take our survey!
×
Contributor
Eulogy - TOOL
Ænima (1996)
Tabbed by: Dave
Legend:
/  slide up 
\  slide down 
x/ pick scrape up
x\ pick scrape down
h  hammer-on 
p  pull-off 
~  vibrato 
+  harmonic 
x  mute note 
PM Palm Mute
b  Bend

Tuning: Good 'ol dropped D
Notes: I've seen some tabs that butcher this great 
 and best TOOL song. This is 100% correct and 
 it's the way I play it (for what's worth).
 Play along with the CD to get the right feel.
Intro: (optional)
e---------------------------------------------
B---------------------------------------------
G--4-4-7-7-5-5-9-9-4-4-7-7-2-2-5-5-4-4-0-0-2-2
D---------------------------------------------
A---------------------------------------------
D---------------------------------------------

e-------
B-------
G---4---  x21
D-------

e---------------------------------------------
B---------------------------------------------
G--4-4-7-7-5-5-9-9-4-4-7-7-2-2-5-5-4-4-0-0-2-2
D---------------------------------------------

e-----------
B-----------
G-4-4-4-4-4- x4
D-----------

e------------------
B------------------
G--4-4-4-4-4h5-2--- x4
D------------------

e-----------------------
B-----------------------
G--4-4----4-4----------- x4
D-----------------------

e---------------------------------------------
B---------------------------------------------
G--4-4-4-4-4/5-5-5-5-5\4-4-4-4-4/-5-5-5-5-5-5-
D---------------------------------------------

e----------------------------------
B----------------------------------
G----------------------------------
D--x-2-----x-2-----x-2-----x-2-----
A--x-2-----x-2-----x-2-----x-2-----
D--x-2-----x-2-----x-2-----x-2-----

Verse (PM)
e-----------------------------------
B-----------------------------------
G-----------------------------------
D-----------------------------------
A-2222-xx-2222-xx-22h3p00----------- x9
D-2222-xx-2222-xx-22h3p00-----------

                           PM Off
e---------------------------------------------------
B---------------------------------------------------
G---------------------------------------------------
D--2-2-2-2----2-2-2-2------7-7-7-7-7-9--------------
A--2-2-2-2----2-2-2-2------7-7-7-7-7-9--------------
D--2-2-2-2----2-2-2-2------7-7-7-7-7-9--------------

Chorus x4
e----------------------------------------------------
B----------------------------------------------------
G----------------------------------------------------
D-0-2--2-2-2-0-2-2-0h2-2-2---5-5-5-5-/-9-------------
A-0-2--2-2-2-0-2-2-0h2-2-2---5-5-5-5-/-9-------------
D-0-2--2-2-2-0-2-2-0h2-2-2---5-5-5-5-/-9-------------
                                                     
e----------------------------------------------------
B----------------------------------------------------
G----------------------------------------------------
D-0-2--2-2-2-0-2-2-0h2-2-2---7-7-7-7-7/9-------------
A-0-2--2-2-2-0-2-2-0h2-2-2---7-7-7-7-7/9-------------
D-0-2--2-2-2-0-2-2-0h2-2-2---7-7-7-7-7/9-------------

Verse (PM)
e-------------------------------
B-------------------------------
G-------------------------------
D-------------------------------
A-2222--2222--22h3p00----------- x18
D-2222--2222--22h3p00-----------

PM off
e-------------------------------------
B-------------------------------------
G-------------------------------------
D--2----2-----2----2-----2h3-0--------
A--2----2-----2----2-----2h3-0-------- x3
D--2----2-----2----2-----2h3-0--------


e---------------------------------------------------
B---------------------------------------------------
G---------------------------------------------------
D--2-2-2-2----2-2-2-2------7-7-7-7-7-9--------------
A--2-2-2-2----2-2-2-2------7-7-7-7-7-9--------------
D--2-2-2-2----2-2-2-2------7-7-7-7-7-9--------------

Chorus x4
(You play this the second time)
e----------------------------------------------------
B----------------------------------------------------
G----------------------------------------------------
D-0-2--2-2-2-0-2-2-0h2-2-2---5-5-5-5-/-9-------------
A-0-2--2-2-2-0-2-2-0h2-2-2---5-5-5-5-/-9-------------
D-0-2--2-2-2-0-2-2-0h2-2-2---5-5-5-5-/-9-------------

e----------------------------------------------------
B----------------------------------------------------
G----------------------------------------------------
D-0-2--2-2-2-0-2-2-0h2-2-2---7-7-x-x-7/9-------------
A-0-2--2-2-2-0-2-2-0h2-2-2---7-7-x-x-7/9-------------
D-0-2--2-2-2-0-2-2-0h2-2-2---7-7-x-x-7/9-------------

e-----------------------------------
B-8-8-8-8-8-12--10-10-10-10-10-12---
G-7-7-7-7-7-11--9--9--9--9--9--11--- x3
D-5-5-5-5-5-9---7--7--7--7--7--9----
A-5-5-5-5-5-9---7--7—-7--7--7--9----
D-5-5-5-5-5-9---7--7--7--7--7--9----

e---------------------------
B-8-8-8-8-8-12--10--8-------
G-7-7-7-7-7-11--9---7------- 
D-5-5-5-5-5-9---7---5-------
A-5-5-5-5-5-9---7---5-------
D-5-5-5-5-5-9---7---5-------

e-------------------------------
B-------------------------------
G-------------------------------
D-0h2—x-x-2/10\5-x-x-5h6-0------ x3
A-0h2-x-x-2/10\5-x-x-5h6-0------
D—0h2-x-x-2/10\5-x-x-5h6-0------

e-------------------------------
B-------------------------------
G-------------------------------
D-0h2—x-x-2/10\5-x-x-5h6-b------ 
A-0h2-x-x-2/10\5-x-x-5h6-b------
D—0h2-x-x-2/10\5-x-x-5h6-b------

e----------------------------
B----------------------------
G----------------------------
D-0-2-2-2-2/5-5-5-5h6-0------ x4
A-0-2-2-2-2/5-5-5-5h6-0------
D—0-2-2-2-2/5-5-5-5h6-0------

*Rest*

e------------------------------------------------------
B----------------------7------------------------7------
G------------------------------------------------------
D-x\\\\\------------9------x\\\\\\----------9----------
A-------x\\\\-----7--------------x\\\\\--7-------------
D------------x\\\--------------------------------------


e------------------------------------------------------
B----------------------7------------------------7------
G------------------------------------------------------
D-x///-///----------9-----------------------9----------
A----------x\\\---7----------------------7-------------
D---------------------------x\\\\\\/////---------------

                  "Standing above..."
e------------------------------------------------------
B----------------------7------------------------7------
G--7---------------------------------------------------
D--7----------------9-----------------------9----------
A--5--------------7----------------------7-------------
D------------------------------------------------------

e------------------------------------------------------
B-------8---7----------7------------------------7------
G--7-----------7---------------------------------------
D--7----------------9-----x\\\\-------------9----------
A--5--------------7------------x\\\\\///-7-------------
D------------------------------------------------------

e----------
B----------
G----------
D----------
A---0------
D---0------

"Will You..." PM
e----------------------------------------
B----------------------------------------
G----------------------------------------
D---------------------------------------- x4
A--2-2-2-2-0-0-0-3-3-3-5-5-5-0-0-0000----
D--2-2-2-2-0-0-0-3-3-3-5-5-5-0-0-0000----

"don't you step..." PM off
e--------------------------------------
B--------------------------------------
G--------------------------------------
D-0h2----2--2-3--3-5---0-0-0-0--------- x4
A-0h2----2--2-3--3-5---0-0-0-0---------
D-0h2—---2--2-3--3-5---0-0-0-0---------



e------------------------------------
B------------------------------------
G------------------------------------
D--14--xx9/10-7/--14--xx9/10--5------
A--14--xx9/10-7/--14--xx9/10--5------
D--14--xx9/10-7/--14--xx9/10--5------

e------------------------------------
B------------------------------------
G------------------------------------
D--14--xx9/10-7/--14--xx9/10--5br0---
A--14--xx9/10-7/--14--xx9/10--5br0---
D--14--xx9/10-7/--14--xx9/10--5br0---

*REST*

PM
e--------------
B--------------
G--------------
D-------------- x11
A--2-2-2-2-----
D--2-2-2-2-----

"He had a lot to say..." PM off

e------------------------------------
B--------7b~~~--------7b~~~----------
G------------------------------------
D-----9------------9----------------- x2
A--7------------7--------------------
D------------------------------------

"Come Down..."
e------------------------------------
B------------------------------------
G------------------------------------
D--------4b---------5b---4--0-------- x3
A-----2----------2-------------------
D--2----------2----------------------

e------------------------------------
B---------------------8--7-----------
G---------------------------7--------
D--------4b-------------------------- 
A-----2----------2-------------------
D--2----------2----------------------

Solo 
(Some kind of harmonics)
e---------------------
B---------------------
G--7h9-7h9-7h9-7h9-7h9
D---------------------
A---------------------
D---------------------

e---------------------
B---------------------
G---------------------
D---------------------
A--5h7-5h7-5h7-5h7~~~~
D---------------------

"To ascend you must die..."
e-------------------------------------
B-------------------------------------
G-------------------------------------
D-0h2--x2--2-3--3-5---0-0-0-0--------- x4
A-0h2--x2--2-3--3-5---0-0-0-0---------
D-0h2--x2--2-3--3-5---0-0-0-0---------

"Good Bye" 
(You can raise this by an octave or use harmonics)
e------------------------------------
B------------------------------------
G------------------------------------
D--14--xx9/10-7/--14--xx9/10--5/----- x2
A--14--xx9/10-7/--14--xx9/10--5/-----
D--14--xx9/10-7/--14--xx9/10--5/-----

Outro
e-----------------------------------------
B-----------------------------------------
G--9—9999/10--10-10\----------------------
D--9—9999/10--10-10\--10--10-10-10-7-777-- 
A--7—7777/-8---8--8\--10--10-10-10-7-777--
D---------------------10--10-10-10-7-777--

e------------------------------
B------------------------------
G--9—9999/10--10-10------------
D--9—9999/10--10-10---10\2----- 
A--7—7777/-8---8--8---10\2-----
D---------------------10\2-----

e--------------
B--------------
G--------------
D--2-2-2-2----- x7
A--2-2-2-2-----
D--2-2-2-2-----
comments
print report bad tab
10 comments total. Showing first comments.
+1 reply
spikedemon! 315 wrote on October 21 2004, 12:00 am

Very nice. 5 stars.

0 reply
caveman_06 11 wrote on March 31 2006, 08:48 pm

good job

0 reply
xDeathwishx 100 wrote on July 2 2007, 10:25 am

Awesome tab. This is one of the best Tool songs. Pushit and Aenema are good ones from that album. Keep tabbing.

I want to post or [tab]
guest
You may want to rate the tab now too:
select rating
Please do not post tabs as comments. Select "correction" instead!