Oops, an error
Loading. Please wait.

Eulogy Tab

version 4
version 4

Whole song

Interactive

by Tool
75,763 views 162 this week
10 commentsread comments
1 2 3 4 5
x 49
add to favorites
launch autoscroll
font size
0
reset
how to read this tab
guitar tuner
backing track
0:00
0:00
×
Best way to learn
"Eulogy"
Autoscroll
slow
fast
+/-
esc
set tempo
stop
Author
Tuning
D A D G B E
Eulogy - TOOL
Ænima (1996)
Tabbed by: Dave

Tuning: Good 'ol dropped D

[Intro]
(optional)
E|----------------------------------------------|
B|----------------------------------------------|
G|--4-4-7-7-5-5-9-9-4-4-7-7-2-2-5-5-4-4-0-0-2-2-|
D|----------------------------------------------|
A|----------------------------------------------|
D|----------------------------------------------|

e|-------|
B|-------|
G|---4---|  x21
D|-------|

e|----------------------------------------------|
B|----------------------------------------------|
G|--4-4-7-7-5-5-9-9-4-4-7-7-2-2-5-5-4-4-0-0-2-2-|
D|----------------------------------------------|

e|-----------|
B|-----------|
G|-4-4-4-4-4-| x4
D|-----------|

e|------------------|
B|------------------|
G|--4-4-4-4-4h5-2---| x4
D|------------------|

e|-----------------------|
B|-----------------------|
G|--4-4----4-4-----------| x4
D|-----------------------|

e|---------------------------------------------|
B|---------------------------------------------|
G|--4-4-4-4-4/5-5-5-5-5\4-4-4-4-4/-5-5-5-5-5-5-|
D|---------------------------------------------|

E|----------------------------------|
B|----------------------------------|
G|----------------------------------|
D|--x-2-----x-2-----x-2-----x-2-----|
A|--x-2-----x-2-----x-2-----x-2-----|
D|--x-2-----x-2-----x-2-----x-2-----|

[Verse]
(PM)
E|-----------------------------------|
B|-----------------------------------|
G|-----------------------------------|
D|-----------------------------------|
A|-2222-xx-2222-xx-22h3p00-----------| x9
D|-2222-xx-2222-xx-22h3p00-----------|

                            PM Off
E|---------------------------------------------------|
B|---------------------------------------------------|
G|---------------------------------------------------|
D|--2-2-2-2----2-2-2-2------7-7-7-7-7-9--------------|
A|--2-2-2-2----2-2-2-2------7-7-7-7-7-9--------------|
D|--2-2-2-2----2-2-2-2------7-7-7-7-7-9--------------|

[Chorus] x4
E|----------------------------------------------------|
B|----------------------------------------------------|
G|----------------------------------------------------|
D|-0-2--2-2-2-0-2-2-0h2-2-2---5-5-5-5-/-9-------------|
A|-0-2--2-2-2-0-2-2-0h2-2-2---5-5-5-5-/-9-------------|
D|-0-2--2-2-2-0-2-2-0h2-2-2---5-5-5-5-/-9-------------|

E|----------------------------------------------------|
B|----------------------------------------------------|
G|----------------------------------------------------|
D|-0-2--2-2-2-0-2-2-0h2-2-2---7-7-7-7-7/9-------------|
A|-0-2--2-2-2-0-2-2-0h2-2-2---7-7-7-7-7/9-------------|
D|-0-2--2-2-2-0-2-2-0h2-2-2---7-7-7-7-7/9-------------|

[Verse]
(PM)
E|-------------------------------|
B|-------------------------------|
G|-------------------------------|
D|-------------------------------|
A|-2222--2222--22h3p00-----------| x18
D|-2222--2222--22h3p00-----------|

 PM off
E|-------------------------------------|
B|-------------------------------------|
G|-------------------------------------|
D|--2----2-----2----2-----2h3-0--------|
A|--2----2-----2----2-----2h3-0--------| x3
D|--2----2-----2----2-----2h3-0--------|


E|---------------------------------------------------|
B|---------------------------------------------------|
G|---------------------------------------------------|
D|--2-2-2-2----2-2-2-2------7-7-7-7-7-9--------------|
A|--2-2-2-2----2-2-2-2------7-7-7-7-7-9--------------|
D|--2-2-2-2----2-2-2-2------7-7-7-7-7-9--------------|

[Chorus] x4
 (You play this the second time)
E|----------------------------------------------------|
B|----------------------------------------------------|
G|----------------------------------------------------|
D|-0-2--2-2-2-0-2-2-0h2-2-2---5-5-5-5-/-9-------------|
A|-0-2--2-2-2-0-2-2-0h2-2-2---5-5-5-5-/-9-------------|
D|-0-2--2-2-2-0-2-2-0h2-2-2---5-5-5-5-/-9-------------|

E|----------------------------------------------------|
B|----------------------------------------------------|
G|----------------------------------------------------|
D|-0-2--2-2-2-0-2-2-0h2-2-2---7-7-x-x-7/9-------------|
A|-0-2--2-2-2-0-2-2-0h2-2-2---7-7-x-x-7/9-------------|
D|-0-2--2-2-2-0-2-2-0h2-2-2---7-7-x-x-7/9-------------|

E|--------------------------------------|
B|-8-8-8-8-8-12--10-10-10-10-10-12------|
G|-7-7-7-7-7-11--9--9--9--9--9--11------| x3
D|-5-5-5-5-5-9---7--7--7--7--7--9-------|
A|-5-5-5-5-5-9---7--7—-7--7--7--9-------|
D|-5-5-5-5-5-9---7--7--7--7--7--9-------|

E|---------------------------|
B|-8-8-8-8-8-12--10--8-------|
G|-7-7-7-7-7-11--9---7-------|
D|-5-5-5-5-5-9---7---5-------|
A|-5-5-5-5-5-9---7---5-------|
D|-5-5-5-5-5-9---7---5-------|

E|-----------------------------------|
B|-----------------------------------|
G|-----------------------------------|
D|-0h2—x-x-2/10\5-x-x-5h6-0----------| x3
A|-0h2-x-x-2/10\5-x-x-5h6-0----------|
D|—0h2-x-x-2/10\5-x-x-5h6-0----------|

E|----------------------------------|
B|----------------------------------|
G|----------------------------------|
D|-0h2—x-x-2/10\5-x-x-5h6-b---------|
A|-0h2-x-x-2/10\5-x-x-5h6-b---------|
D|—0h2-x-x-2/10\5-x-x-5h6-b---------|

E|-------------------------------|
B|-------------------------------|
G|-------------------------------|
D|-0-2-2-2-2/5-5-5-5h6-0---------| x4
A|-0-2-2-2-2/5-5-5-5h6-0---------|
D|—0-2-2-2-2/5-5-5-5h6-0---------|

*Rest*

E|------------------------------------------------------|
B|----------------------7------------------------7------|
G|------------------------------------------------------|
D|-x\\\\\------------9------x\\\\\\----------9----------|
A|-------x\\\\-----7--------------x\\\\\--7-------------|
D|------------x\\\--------------------------------------|


E|------------------------------------------------------|
B|----------------------7------------------------7------|
G|------------------------------------------------------|
D|-x///-///----------9-----------------------9----------|
A|----------x\\\---7----------------------7-------------|
D|---------------------------x\\\\\\/////---------------|

                   "Standing above..."
E|------------------------------------------------------|
B|----------------------7------------------------7------|
G|--7---------------------------------------------------|
D|--7----------------9-----------------------9----------|
A|--5--------------7----------------------7-------------|
D|------------------------------------------------------|

E|------------------------------------------------------|
B|-------8---7----------7------------------------7------|
G|--7-----------7---------------------------------------|
D|--7----------------9-----x\\\\-------------9----------|
A|--5--------------7------------x\\\\\///-7-------------|
D|------------------------------------------------------|

E|----------|
B|----------|
G|----------|
D|----------|
A|---0------|
D|---0------|

 "Will You..." PM
E|----------------------------------------|
B|----------------------------------------|
G|----------------------------------------|
D|----------------------------------------| x4
A|--2-2-2-2-0-0-0-3-3-3-5-5-5-0-0-0000----|
D|--2-2-2-2-0-0-0-3-3-3-5-5-5-0-0-0000----|

 "don't you step..." PM off
E|-----------------------------------------|
B|-----------------------------------------|
G|-----------------------------------------|
D|-0h2----2--2-3--3-5---0-0-0-0------------| x4
A|-0h2----2--2-3--3-5---0-0-0-0------------|
D|-0h2—---2--2-3--3-5---0-0-0-0------------|

E|------------------------------------|
B|------------------------------------|
G|------------------------------------|
D|--14--xx9/10-7/--14--xx9/10--5------|
A|--14--xx9/10-7/--14--xx9/10--5------|
D|--14--xx9/10-7/--14--xx9/10--5------|

E|------------------------------------|
B|------------------------------------|
G|------------------------------------|
D|--14--xx9/10-7/--14--xx9/10--5br0---|
A|--14--xx9/10-7/--14--xx9/10--5br0---|
D|--14--xx9/10-7/--14--xx9/10--5br0---|

*REST*

 PM
E|--------------|
B|--------------|
G|--------------|
D|--------------| x11
A|--2-2-2-2-----|
D|--2-2-2-2-----|

"He had a lot to say..." PM off

E|------------------------------------|
B|--------7b~~~--------7b~~~----------|
G|------------------------------------|
D|-----9------------9-----------------| x2
A|--7------------7--------------------|
D|------------------------------------|

 "Come Down..."
E|------------------------------------|
B|------------------------------------|
G|------------------------------------|
D|--------4b---------5b---4--0--------| x3
A|-----2----------2-------------------|
D|--2----------2----------------------|

E|------------------------------------|
B|---------------------8--7-----------|
G|---------------------------7--------|
D|--------4b--------------------------|
A|-----2----------2-------------------|
D|--2----------2----------------------|

[Solo]
 (Some kind of harmonics)
E|----------------------|
B|----------------------|
G|--7h9-7h9-7h9-7h9-7h9-|
D|----------------------|
A|----------------------|
D|----------------------|

E|----------------------|
B|----------------------|
G|----------------------|
D|----------------------|
A|--5h7-5h7-5h7-5h7~~~~-|
D|----------------------|

 "To ascend you must die..."
E|-------------------------------------|
B|-------------------------------------|
G|-------------------------------------|
D|-0h2--x2--2-3--3-5---0-0-0-0---------| x4
A|-0h2--x2--2-3--3-5---0-0-0-0---------|
D|-0h2--x2--2-3--3-5---0-0-0-0---------|

 "Good Bye"
 (You can raise this by an octave or use harmonics)
E|------------------------------------|
B|------------------------------------|
G|------------------------------------|
D|--14--xx9/10-7/--14--xx9/10--5/-----| x2
A|--14--xx9/10-7/--14--xx9/10--5/-----|
D|--14--xx9/10-7/--14--xx9/10--5/-----|

[Outro]
E|--------------------------------------------|
B|--------------------------------------------|
G|--9—9999/10--10-10\-------------------------|
D|--9—9999/10--10-10\--10--10-10-10-7-777-----|
A|--7—7777/-8---8--8\--10--10-10-10-7-777-----|
D|---------------------10--10-10-10-7-777-----|

E|---------------------------------|
B|---------------------------------|
G|--9—9999/10--10-10---------------|
D|--9—9999/10--10-10---10\2--------|
A|--7—7777/-8---8--8---10\2--------|
D|---------------------10\2--------|

E|--------------|
B|--------------|
G|--------------|
D|--2-2-2-2-----| x7
A|--2-2-2-2-----|
D|--2-2-2-2-----|



************************************
 
/  slide up
\  slide down
x/ pick scrape up
x\ pick scrape down
h  hammer-on
p  pull-off
~  vibrato
+  harmonic
x  mute note
PM Palm Mute
b  Bend

************************************ 
Suggest correction
comments
print report bad tab
10 comments total. Showing first comments.
+1 reply
spikedemon! 10 Oct 20, 2004 08:00 PM

Very nice. 5 stars.

0 reply
caveman_06 10 Mar 31, 2006 03:48 PM

good job

0 reply
xDeathwishx 10 Jul 02, 2007 06:25 AM

Awesome tab. This is one of the best Tool songs. Pushit and Aenema are good ones from that album. Keep tabbing.

guest
You may want to rate the tab now too:
select rating
Wanna post a correction for this tab? Suggest correction