Oops, an error
Loading. Please wait.

Forty-Six And 2 tab

version 1
version 1

Whole song

Interactive

by Tool
84,174 views 186 this week
5 commentsread comments
1 2 3 4 5
x 25
add to favorites
×
Save as Personal and add changes to this tab that will be seen only by you. Learn more ›
×
You can save this tab as Personal to edit and correct it or add notes. All changes will be seen only by you. Learn more »
launch autoscroll
font size
0
reset
how to read this tab
guitar tuner
edit
Autoscroll
slow
fast
+/-
esc
set tempo
stop
(light distortion with flang-

*volume off, hit open D5 chord and volume swell*

E|-------------------------------------------|
B|-------------------------------------------|
G|-------------------------------------------|
D|-------------------------------------------| x8
A|-------------------------------------------|
D|---12--10--13\12----12--10--13\12---8/10---|

  pm - - - - - - - - - - - - - - - - - -|
---------------------------------------------------------------------------|
---------------------------------------------------------------------------|
---------------------------------------------------------------------------|
---------------------------------------------------------------------------|
---------------------------------------------------------------------------|
---12--10--13\12----12--10--13\12----12--10--13\12----12--10--13\12--8/10--|

E|-------------------------------------------|
B|-------------------------------------------|
G|-------------------------------------------|
D|---0---------------3-----------------0-----|
A|---0---------------3-----------------0-----|
D|---0---------------3-----------------0-----|

E|--------------------------------------------------------------------|
B|--------------------------------------------------------------------|
G|--------------------------------------------------------------------|
D|-------------12-------------------------------------------------0---|
A|--------12-------------------12---15--------------12---15-------0---|
D|---12-------------------12---------------------15---------------0---|

E|-------------|
B|-------------|
G|-------------|
D|---5\4-------|
A|-------3/5---|
D|-------------|

E|-----------------------------------------------|
B|-----------------------------------------------|
G|-----------------------------------------------|
D|---0---------------3-----------------0-----12--|
A|---0---------------3-----------------0---------|
D|---0---------------3-----------------0---------|

E|-----------------------------------------------------------------------------|
B|-----------------------------------------------------------------------------|
G|-----------------------------------------------------------------------------|
D|-------------12---------------------------------------------------------12---|
A|--------12-----------------12---15------------12---15--------------12--------|
D|---12-----------------12-------------------15-----------------12-------------|

(clean)

E|------------------------------------------------------------------------|
B|------------------------------------------------------------------------|
G|---19-19-19-19-19-19-19----17-17-17-17-17-17-17---16-16-16-16-16-16-16--|
D|---19-19-19-19-19-19-19----19-19-19-19-19-19-19---17-17-17-17-17-17-17--|
A|------------------------------------------------------------------------|
D|------------------------------------------------------------------------|

E|------------------------------------------------------------------|
B|---3-3-3-3-3-3-3-3-3-3--1-1-1-1-1-1-1-1-1-1--0-0-0-0-0-0-0-0-0-0--|
G|---2-2-2-2-2-2-2-2-2-2--2-2-2-2-2-2-2-2-2-2--0-0-0-0-0-0-0-0-0-0--|
D|------------------------------------------------------------------|
A|------------------------------------------------------------------|
D|------------------------------------------------------------------|

  (distortion)
E|----------------------------|
B|---3------------------------|
G|---2----7----7----7----7b---|
D|---0-------0----0----0------|
A|---0------------------------|
D|---0------------------------|

E|---------------------------------------------------|
B|---------------------------------------------------|
G|---------------------------------------------------|
D|---------------------------------------------------| x4
A|---------------------------------------------------|
D|---0--12--0--10-h-12--0--13\12--0--10-h-12---8/10--|

E|-----------------------------------------|
B|-----------------------------------------|
G|-----------------------------------------|
D|---0--12---10h12---13\12---10h12---8/10--| x3
A|---0--12---10h12---13\12---10h12---8/10--|
D|---0--12---10h12---13\12---10h12---8/10--|

E|-----------------------|
B|-----------------------|
G|-----------------------|
D|---0----0----0----0----|
A|---0----0----0----0----|
D|---0----0----0----0----|

E|--------------------------------------------|
B|--------------------------------------------|
G|--------------------------------------------|
D|--------------------------------------------| x4
A|--------------------------------------------|
D|---12--10--13\12----12--10--13\12---8/10----|

e-------------------------------------------|
b-------------------------------------------|
g-------------------------------------------|
d-------------------------------------------| x7
a-------------------------------------------|
d--12--10--13\12----12--10--13\12---8/10----|
  pm - - - - - - - - - - - - - - - - - -|

e---------------------------------|
b---------------------------------|
g---------------------------------|
d---------------------------------|
a---------------------------------|
d--0-12--0-12--0-12--0-12--0-12---|
                     ph - - - |

E|-------------------------------------------------|
B|-------------------------------------------------|
G|-------------------------------------------------|
D|-------------------------------------------------| x4
A|-------------------------------------------------|
D|---0--12--0--10--12--0--13\12--0--10--12---8/10--|

E|------------------------------------------|
B|------------------------------------------|
G|------------------------------------------|
D|---0--12---10h12---13\12---10h12---8/10---| x3
A|---0--12---10h12---13\12---10h12---8/10---|
D|---0--12---10h12---13\12---10h12---8/10---|

E|------------------------------------|
B|------------------------------------|
G|------------------------------------|
D|--0--12---0--12---0--12---0--12-----|
A|--0--12---0--12---0--12---0--12-----|
D|--0--12---0--12---0--12---0--12-----|

E|---------------------------------------------|
B|---------------------------------------------|
G|---------------------------------------------|
D|---5h7--0-0--3h5--0--5h7--0--3h5--5h7--0--0--| x4
A|---5h7--0-0--3h5--0--5h7--0--3h5--5h7--0--0--|
D|---5h7--0-0--3h5--0--5h7--0--3h5--5h7--0--0--|
        pm-      pm      pm            pm -

E|---------------------------------------------------------------------------|
B|---------------------------------------------------------------------------|
G|---------------------------------------------------------------------------|
D|---12-(Trem. Pick)---15-(Trem. Pick)---14-(Trem. Pick)---13b-(Trem. Pick)--|
A|---------------------------------------------------------------------------|
D|---------------------------------------------------------------------------|

E|------------------------------|
B|------------------------------|
G|------------------------------|
D|---0--0-0-12\\\3--3-----------| x4
A|---0--0-0-12\\\3--3--3-3-3h5--|
D|---0--0-0-12\\\3--3-----------|

                     x4                      x4
e-----------------------|-----------------------|
b-----------------------|-----------------------|
g-----------------------|-----------------------|
d-----------------------|-----------------------| (x2)
a-----------------------|-----------------------|
d--12--0--10--0--13\12--|--12--0--10--0--13\12--|
                          pm - - - - - - - - -|

                     x4                      x8
e-----------------------|-----------------------|
b-----------------------|-----------------------|
g-----------------------|-----------------------|
d-----------------------|-----------------------|
a-----------------------|-----------------------|
d--12--0--10--0--13\12--|--12--0--10--0--13\12--|
                          pm - - - - - - - - -|

(with wah open)

  (increase the wah gradually over the 4 bars)
E|-------------------------------------|
B|-------------------------------------|
G|-------------------------------------|
D|---12--10---13\12----12--10---13\12--| x4
A|---12--10---13\12----12--10---13\12--|
D|---12--10---13\12----12--10---13\12--|

  (increase the wah to fully close-
E|------------------------------------|
B|------------------------------------|
G|------------------------------------|
D|---12--10---13\12--12--10--13\12----| x2
A|---12--10---13\12-------------------|
D|------------------------------------|

E|------------------------------------------------|
B|------------------------------------------------|
G|------------------------------------------------|
D|---12---10---13---12---10---13---12---10---13b--|
A|------------------------------------------------|
D|------------------------------------------------|

(wah off)

  (ph with pick hand moving up and down strin-
E|---------------------------------|
B|---------------------------------|
G|---------------------------------|
D|---------------------------------| x5
A|---------------------------------|
D|---12-10--13-12---12-10--13-12---|

E|------------------------------------------|
B|------------------------------------------|
G|------------------------------------------|
D|---12--10--13\12----12--10--13\12---8h10--| x4
A|---12--10--13\12----12--10--13\12---8h10--|
D|---12--10--13\12----12--10--13\12---8h10--|

E|------------------------------------|
B|------------------------------------|
G|------------------------------------|
D|---12--10--13\12----15--10--12---1--|
A|---12--10--13\12----15--10--12---1--|
D|---12--10--13\12----15--10--12---1--|

E|----------------------------------------|
B|----------------------------------------|
G|----------------------------------------|
D|---0--12--10h12---13\12---10h12---8h10--|
A|---0--12--10h12---13\12---10h12---8h10--| x4
D|---0--12--10h12---13\12---10h12---8h10--|

E|-------------------------------------|
B|-------------------------------------|
G|-------------------------------------|
D|---0--0--0--0--0--0--0--0--0--0--0---|
A|---0--0--0--0--0--0--0--0--0--0--0---|
D|---0--0--0--0--0--0--0--0--0--0--0---|

===========================================================
Tool - Forty-Six & 2


  let all notes ring
          c
E|------------------------------------------|
B|---3----------------6-----------------3---|
G|---2----------------5-----------------2---|
D|---0----------------3-----------------0---|
A|---0----------------3-----------------0---|
D|---0----------------3-----------------0---|

              *                *
E|----------------------------------------------------------------|
B|--------------3---------------1-------------1----3--------------|
G|---------2---------------2--------------2--------2--------------|
D|---0----------------0--------------3-------------0---5s4--------|
A|-------------------------------------------------0-------3s5----|
D|-------------------------------------------------0--------------|
           * = slightly p.m.

  "...My shadow's shedding skin and I've been picking scabs again..."
E|--------------------------------------------------------------------|
B|---------------------------------------------------3----------------|
G|---------------------------------------------------2----------------|
D|---------------------------------3-----------------0----------------|
A|---(5)~~~~~~~~let ring~~~~~~~~~--3-----------------0----------------|
D|---------------------------------------------------0----------------|

  "...I'm  down...digging through...my old muscles...for a  clue.."
      *           *                                  *
E|--------------------------------------------------------------------|
B|--------3--------------1----------------1----------------3----------|
G|-----2-------------2----------------2-----------------2-------------|
D|---0-----------0-----------------3----------------0-----------------|
A|--------------------------------------------------------------------|
D|--------------------------------------------------------------------|
   * = slightly p.m.


  "...I've..."          "...what..."         "...wallowing..."
E|-)--10-10-10-10-10-10-10-----8--8--8--8--8--8--8----7-7-7-7-7-7-7---|
B|-)--10-10-10-10-10-10-10----10-10-10-10-10-10-10----8-8-8-8-8-8-8---|
G|-)------------------------------------------------------------------|
D|-)------------------------------------------------------------------|
A|-)------------------------------------------------------------------|
D|-)------------------------------------------------------------------|

  "...insecure..."     "...place..."        "...word..."
E|-)--2-2-2-2-2-2-2-2-2-2--------------------------------------------|
B|-)--3-3-3-3-3-3-3-3-3-3--3-3-3-3-3-3-3-3-3-3--1-1-1-1-1-1-1-1-1-1--|
G|-)-----------------------2-2-2-2-2-2-2-2-2-2--2-2-2-2-2-2-2-2-2-2--|
D|-)-----------------------0-0-0-0-0-0-0-0-0-0-----------------------|
A|-)-----------------------------------------------------------------|
D|-)-----------------------------------------------------------------|

  "...feel..."                "...know..."             |-grad. bend-|
E|------------------------------------------------------------------|
B|-------0------0------0---------3----------------------------------|
G|----0------0------0------0-----2----7----7----7----7b-------------|
D|-------------------------------0-------0----0----0----------------|
A|-------------------------------0----------------------------------|
D|------------------------------------------------------------------|

[Chorus 1]

      riff 3: 4 times
E|------------------------------------------|
B|------------------------------------------|
G|------------------------------------------|
D|------------------------------------------|
A|------------------------------------------|
D|---0-12-0-10h12-0-13p12-0-10h12-0-8h10----|

    riff 4: 3 times

E|------------------------------------------|
B|------------------------------------------|
G|------------------------------------------|
D|---0-12-0-10h12-0-13p12-0-10h12-0-8h10----|
A|---0-12-0-10h12-0-13p12-0-10h12-0-8h10----|
D|---0-12-0-10h12-0-13p12-0-10h12-0-8h10----|

      then:
E|--------------------------------------|
B|--------------------------------------|
G|--------------------------------------|
D|---0-------0-------0-------0----------|
A|---0-------0-------0-------0----------|
D|---0-------0-------0-------0----------|


[Verse 2]

play this: 8 times (palm mute after the 4th tim-

E|-----------------------------------------------|
B|-----------------------------------------------|
G|-----------------------------------------------|
D|-----------------------------------------------|
A|-----------------------------------------------|
D|---12-0-10-0-13p12-0-12-0-10-0-13p12-0-8h10----|

then this: 4 times
 "...I've been crawling..."

           p.m.--------------------------------|

E|--------------------------------------|
B|--------------------------------------|
G|--------------------------------------|
D|--------------------------------------|
A|--------------------------------------|
D|---12-10-13p12-12-10-13p12------------|

followed by this: 3 times
"...I wanna feel..."
           p.m.--------------------------------|

E|--------------------------------------|
B|--------------------------------------|
G|--------------------------------------|
D|--------------------------------------|
A|--------------------------------------|
D|---12-10-13p12-12-10-13p12-8h10-------|

  then this:
  "...I've endered..."                   |-grad. bend-|
E|------------------------------------------------|
B|------------------------------------------------|
G|------------------------------------------------|
D|------------------------------------------------|
A|------5--------5------5-------5b----------------|
D|---0--------0------0-------0--------------------|


[Chorus 2]

    play riff 3: 4 times

    then riff 4: 3 times

      then:
E|------------------------------------|
B|------------------------------------|
G|------------------------------------|
D|---0-12-----0-12-----0-12-----0-12--|
A|---0-12-----0-12-----0-12-----0-12--|
D|---0-12-----0-12-----0-12-----0-12--|


[Bridge 1]

  "...I..."                           "...grow..."
E|----------------------------------------------------------------------|
B|----------------------------------------------------------------------|
G|----------------------------------------------------------------------|
D|----------------------------------------------------------------------|
A|---5h7-----3h5---5h7---3---3h5-5h7-----5h7-----3h5---5h7---3h5-5h7----|
D|---5h7-0-0-3h5-0-5h7-0-3-0-3h5-5h7-0-0-5h7-0-0-3h5-0-5h7-0-3h5-5h7----|
        * *     *     *   *         * *     * *     *     *
     * = p.m.

      "...move..."                    "...cry..."
E|------------------------------------------------------------------------|
B|------------------------------------------------------------------------|
G|------------------------------------------------------------------------|
D|------------------------------------------------------------------------|
A|-------5h7-----3h5---5h7---3h5-5h7-----5h7-----3h5---5h7---3h5-5h7------|
D|---0-0-5h7-0-0-3h5-0-5h7-0-3h5-5h7-0-0-5h7-0-0-3h5-0-5h7-0-3h5-5h7------|
    * *     * *     *     *         * *     * *     *     *
   * = p.m.


[Solo]

"...Be paranoid and to......lie, hate, and fear and to..."
  trem.-----------------| trem.------------------------------------------|
E|------------------------------------------------------------------------|
B|------------------------------------------------------------------------|
G|------------------------------------------------------------------------|
D|----------------------------6-------------------------------------------|
A|---7------------------------7-------------------------------------------|
D|------------------------------------------------------------------------|

"...do what it takes to move through..."
  trem.-------------------| trem.----------------------------------------|
E|------------------------------------------------------------------------|
B|------------------------------------------------------------------------|
G|------------------------------------------------------------------------|
D|---5------------------------4--------------------4b---------------------|
A|---7------------------------7--------------------7b---------------------|
D|------------------------------------------------------------------------|


[Bridge 2]

    "...I..."                       "...lie..."
E|------------------------------------------------------------------------|
B|------------------------------------------------------------------------|
G|------------------------------------------------------------------------|
D|---0---------------3--------------0--------------3----------------------|
A|---0---------------3--3-3-3-3h5---0--------------3--3-3-3-3h5-----------|
D|---0--0-0-10s--0--3--------------0--0-0-10s--0-3------------------------|
       * *                            * *
     * = p.m.

    "...die..."                    "...do..."
E|------------------------------------------------------------------------|
B|------------------------------------------------------------------------|
G|------------------------------------------------------------------------|
D|---0---------------3--------------0--------------3----------------------|
A|---0---------------3--3-3-3-3h5---0--------------3--3-3-3-3h5-----------|
D|---0--0-0-10s--0--3--------------0--0-0-10s--0-3------------------------|
       * *                            * *
     * = p.m.


[Interlude]

E|-------------------------------------------------------------------------------|
B|-------------------------------------------------------------------------------|
G|-------------------------------------------------------------------------------|
D|-------------------------------------------------------------------------------|
A|-------------------------------------------------------------------------------|
D|---12-0-10-0-13p12-0-12-0-10-0-13p12---12-0-10-0-13p12-0-12-0-10-0-13p12-10----|


p.m.-------------------------------------------------------------------------------|
E|----------------------------------------------------------------------------------|
B|----------------------------------------------------------------------------------|
G|----------------------------------------------------------------------------------|
D|----------------------------------------------------------------------------------|
A|----------------------------------------------------------------------------------|
D|--12-0-10-0-13p12-0-12-0-10-0-13p12-13-12-0-10-0-13p12-0-12-0-10-0-13p12-13-10----|

E|-------------------------------------------------------------------------------|
B|-------------------------------------------------------------------------------|
G|-------------------------------------------------------------------------------|
D|-------------------------------------------------------------------------------|
A|-------------------------------------------------------------------------------|
D|---12-0-10-0-13p12-0-12-0-10-0-13p12---12-0-10-0-13p12-0-12-0-10-0-13p12-10----|


p.m.-------------------------------------------------------------------------------|
E|----------------------------------------------------------------------------------|
B|----------------------------------------------------------------------------------|
G|----------------------------------------------------------------------------------|
D|----------------------------------------------------------------------------------|
A|----------------------------------------------------------------------------------|
D|--12-0-10-0-13p12-0-12-0-10-0-13p12-13-12-0-10-0-13p12-0-12-0-10-0-13p12-13-10----|

E|-------------------------------------------------------------------------------|
B|-------------------------------------------------------------------------------|
G|-------------------------------------------------------------------------------|
D|-------------------------------------------------------------------------------|
A|-------------------------------------------------------------------------------|
D|---12-0-10-0-13p12-0-12-0-10-0-13p12---12-0-10-0-13p12-0-12-0-10-0-13p12-10----|

p.m.------------------------------------------------------------------------------|
E|--------------------------------------------------------------------------------|
B|--------------------------------------------------------------------------------|
G|--------------------------------------------------------------------------------|
D|--------------------------------------------------------------------------------|
A|--------------------------------------------------------------------------------|
D|-12-0-10-0-13p12-0-12-0-10-0-13p12-13-12-0-10-0-13p12-0-12-0-10-0-13p12-13-10---|


p.m.------------------------------------------------------------------------------|
E|---------------------------------------------------------------------------------|
B|---------------------------------------------------------------------------------|
G|---------------------------------------------------------------------------------|
D|---------------------------------------------------------------------------------|
A|---------------------------------------------------------------------------------|
D|-12-0-10-0-13p12-0-12-0-10-0-13p12-13-12-0-10-0-13p12-0-12-0-10-0-13p12-13-10----|

E|----------------------------------------------------------------------------|
B|----------------------------------------------------------------------------|
G|----------------------------------------------------------------------------|
D|-----------------------------13p12------------------------------------------|
A|-----------------------------13p12------------------------------------------|
D|---12-0-10-0-13p12-0-12-0-10-13p12---12-0-10-0-13p12-0-12-0-10-0-13p12-0----|

E|--------------------------------------------------------------------------------|
B|--------------------------------------------------------------------------------|
G|--------------------------------------------------------------------------------|
D|--------------------------------------------------------------------------------|
A|-----------------------------------------12---10---13p12---12---10---13p12------|
D|---12-0-10-0-13p12-0-12-0-10-0-13p12-0---12-0-10-0-13p12-0-12-0-10-0-13p12-0----|

E|---------------------------------------------------------------------------------|
B|---------------------------------------------------------------------------------|
G|---------------------------------------------------------------------------------|
D|---12-0-10-0-13p12-0--12-0-10-0-13p12-0--12-0-10-0-13p12-0--12-0-10-0-13p12-0----|
A|---------------------------------------------------------------------------------|
D|---------------------------------------------------------------------------------|

E|------------------------------------------------------------------------|
B|------------------------------------------------------------------------|
G|------------------------------------------------------------------------|
D|---12---10---13---------12---10---13---------12---10---13b--------------|
A|------------------------------------------------------------------------|
D|------------------------------------------------------------------------|
   add some wah in when it gets louder towards the end.


[Chorus 3]

  "...See..."                          "...stretching..."
E|---------------------------------------------------------------------------------|
B|---------------------------------------------------------------------------------|
G|---------------------------------------------------------------------------------|
D|---------------------------------------------------------------------------------|
A|---12-0-10h12-13p12-0-12-0-10-0-13p12-0--12-0-10h12-13p12-0-12-0-10-0-13p12-0----|
D|---12-0-10h12-13p12-0-12-0-10-0-13p12-0--12-0-10h12-13p12-0-12-0-10-0-13p12-0----|

  "...soften..."                       "...hoping..."
E|---------------------------------------------------------------------------------|
B|---------------------------------------------------------------------------------|
G|---------------------------------------------------------------------------------|
D|---------------------------------------------------------------------------------|
A|---12-0-10h12-13p12-0-12-0-10-0-13p12-0--12-0-10h12-13p12-0-12-0-10-0-13p12-0----|
D|---12-0-10h12-13p12-0-12-0-10-0-13p12-0--12-0-10h12-13p12-0-12-0-10-0-13p12-0----|

  "...stepping..."                     "...coming..."
E|---------------------------------------------------------------------------------|
B|---------------------------------------------------------------------------------|
G|---------------------------------------------------------------------------------|
D|---------------------------------------------------------------------------------|
A|---12-0-10h12-13p12-0-12-0-10-0-13p12-0--12-0-10h12-13p12-0-12-0-10-0-13p12-0----|
D|---12-0-10h12-13p12-0-12-0-10-0-13p12-0--12-0-10h12-13p12-0-12-0-10-0-13p12-0----|

  "...step..."                          "...forty six..."
E|--------------------------------------------------------------------------------|
B|--------------------------------------------------------------------------------|
G|--------------------------------------------------------------------------------|
D|--------------------------------------------------------------------------------|
A|---12-0-10h12-13p12-0-12-0-10-0-13p12-0--12-0-10h12-13p12-0-12-0-10-0-13-12b----|
D|---12-0-10h12-13p12-0-12-0-10-0-13p12-0--12-0-10h12-13p12-0-12-0-10-0-13-12b----|

   There is some kind of solo in the background during this last chorus.
   I haven't figured it out yet, but if you want to get a reasonably
similar
   sound add some pinch harmonics in while you're playing the chorus.


[Outro]

E|------------------------------------------------------------------------|
B|------------------------------------------------------------------------|
G|------------------------------------------------------------------------|
D|---12-10-13p12--12-10-13p12-8h10---12-10-13p12--12-10-13p12-8h10--------|
A|---12-10-13p12--12-10-13p12-8h10---12-10-13p12--12-10-13p12-8h10--------|
D|---12-10-13p12--12-10-13p12-8h10---12-10-13p12--12-10-13p12-8h10--------|

E|------------------------------------------------------------------------|
B|------------------------------------------------------------------------|
G|-----------------------------------------------------5--7--1------------|
D|---12-10-13p12--12-10-13p12-8h10---12-10-13p12----3--5--7--1------------|
A|---12-10-13p12--12-10-13p12-8h10---12-10-13p12----3--3--5--1------------|
D|---12-10-13p12--12-10-13p12-8h10---12-10-13p12-0--3---------------------|

E|------------------------------------------------------------------------|
B|------------------------------------------------------------------------|
G|------------------------------------------------------------------------|
D|---0-12-0-10h12-0-13p12-0-10h12-0-8h10----------------------------------|
A|---0-12-0-10h12-0-13p12-0-10h12-0-8h10----------------------------------|
D|---0-12-0-10h12-0-13p12-0-10h12-0-8h10----------------------------------|

E|------------------------------------------------------------------------|
B|------------------------------------------------------------------------|
G|------------------------------------------------------------------------|
D|---0-12-0-10h12-0-13p12-0-10h12-0-8h10----------------------------------|
A|---0-12-0-10h12-0-13p12-0-10h12-0-8h10----------------------------------|
D|---0-12-0-10h12-0-13p12-0-10h12-0-8h10----------------------------------|

E|------------------------------------------------------------------------|
B|------------------------------------------------------------------------|
G|------------------------------------------------------------------------|
D|---0-12-0-10h12-0-13p12-0-10h12-0-8h10----------------------------------|
A|---0-12-0-10h12-0-13p12-0-10h12-0-8h10----------------------------------|
D|---0-12-0-10h12-0-13p12-0-10h12-0-8h10----------------------------------|

E|------------------------------------------------------------------------|
B|------------------------------------------------------------------------|
G|------------------------------------------------------------------------|
D|---0--0--0--0--0---0---0--0--0--0---------------------------------------|
A|---0--0--0--0--0---0---0--0--0--0---------------------------------------|
D|---0--0--0--0--0---0---0--0--0--0---------------------------------------|

E|------------------------------------------------------------------------|
B|------------------------------------------------------------------------|
G|------------------------------------------------------------------------|
D|---0---0--0--0--0---0---0--0--0-----------------------------------------|
A|---0---0--0--0--0---0---0--0--0-----------------------------------------|
D|---0---0--0--0--0---0---0--0--0-----------------------------------------|



************************************

| h  Hammer-on
| p  Pull-off
| b  Bend
| /  Slide up
| \  Slide down
| s  Slide
| PM Palm Mute

************************************

            
            
Suggest correction
Creating personal tab
Creating personal tab
You can edit any tab online and save it as your Personal.

You can edit, replace or remove any tab part or add personal notes – all changes will be seen only by you.

Personal tabs can be accessed anytime from any device, even offline.
Learn more »
comments
print report bad tab
5 comments total. Showing first comments.
0 reply
Ribica 103 Jun 29, 2007 01:36 AM

Nice CTRL+C and CTRL+V job mate. I guess tooltabs.net is one great site, huh?

0 reply
bvan3524 10 Dec 16, 2015 06:22 AM, edited at 11:23 am

.

+1 reply
Jonesy427 10 Mar 28, 2016 06:14 PM

The intro goes a bit more like this

E--------------------------------------------------------------------------
B--------------------------------------------------------------------------
G--------------------------------------------------------------------------
D--------------------------------------------------------------------------
A--------------------------------------------------------------------------
D-0-12-0-10h12-0-13p12-0-10h12-0-8h10-0-12-0-10h12-0-13p12-0-10h12-0-8h10-0-

E--------------------------------------------------------------------------
B--------------------------------------------------------------------------
G--------------------------------------------------------------------------
D--------------------------------------------------------------------------
A------------------------------------------------------------10p9-----------
D-0-12-0-10h12-0-13p12-0-10h12-0-8h10-0-12-0-10h12-0-13p12-0-------0-8h10---

guest
Wanna post a correction for this tab? Suggest correction