Oops, an error
Loading. Please wait.

H Tab

version 3
version 3

Whole song

Interactive

by Tool
2,835 views 123 this week
no commentswrite comment
1 2 3 4 5
x 5
add to favorites
×
Save as Personal and add changes to this tab that will be seen only by you. Learn more ›
×
You can save this tab as Personal to edit and correct it or add notes. All changes will be seen only by you. Learn more »
save as personal
new!
launch autoscroll
font size
0
reset
how to read this tab
guitar tuner
Autoscroll
slow
fast
+/-
esc
set tempo
stop
Author
Difficulty
Tuning
intermediate
D A D G B E
H by Tool

Tabbed by: Radiohead293

0:14
e|--------------------------|
B|--------------------------|
G|--------------------------|
D|--------------------------|
A|-5-------b----------------|
D|--------------------------|
  play with volume knob down, and swell up

0:20
e|--------------------------|----------------------------|
B|-3------------------------|-3--------------------------|
G|-2------------------------|-2--------------------------|
D|-0------------------------|-0--------------------------|
A|-0------------------------|-0--------------------------|
D|-0------------------------|-0--------------------------|

e|-------------------------------------------------------|
B|-----3----------------------15-------------------------|
G|-----2----------------------14-------------------------|
D|-x-x-0----------------------0--------------------------|
A|-x-x-0----------------------0--------------------------|
D|-x-x-0----------------------0--------------------------|

0:40 clean w/ delay
e|---------------------------------------|
B|---------------------------------------|
G|---------5---5h7p5-----------5---5\4---|
D|-----7-----7-------7-----7-----7-----5-| x2
A|-5-5---8-------------5-5---8-----------|
D|---------------------------------------|

:049
e|---------------------------------------|
B|---------------------------------------|
G|---------------------------------------|
D|-7-------------------7-------5-----7h8-|
A|---------------------------------------|
D|---------------------------------------|

e|---------------------------------------|
B|---------------------------------------|
G|---------------------------------------|
D|-7-------------------7-------5---------|
A|------------------------------------7--|
D|---------------------------------------|

e|---------------------------------------|
B|---------------------------------------|
G|-----------------------------0---------|
D|---------------------------------------|
A|-5-------------------3/5---3---3/5-----|
D|---------------------------------------|

1:03
e|---------------------------------------|
B|---------------------------------------|
G|---------5---5h7p5-----------5---5\4---|
D|-----7-----7-------7-----7-----7-----5-| 
A|-5-5---8-------------5-5---8-----------|
D|---------------------------------------|

1:08
e|---------------------------------|
B|---------------------------------|
G|---------------------------------|
D|-----7---5-----------7---5-------| 
A|-5-5---8---7-0-5---5---8---8-7-0-|
D|---------------------------------|
   m m m m m m m m m m m m m m m m 

e|---------------------------------|
B|---------------------------------|
G|---------------------------------|
D|-----7---5-----------7-----5---5\| x2
A|-5-5---8---7-0-5---5---8---5---5\|
D|---------------------------5---5\|
   m m m m m m m m m m m m  

e|-----------------|
B|-----------------|
G|-----------------|
D|-----7-----5---5\| x4
A|-5-5---8---5---5\|
D|-----------5---5\|
   m m m m 

1:37 distortion
e|--------------------------|-----------------------------|
B|-3------------------------|-3---------------------------|
G|-2------------------------|-2---------------------------|
D|-0-------------x\---------|-0-----------------x\--------|
A|-0------------------------|-0-----------------------x\--|
D|-0------------------------|-0---------------------------|

1:47 clean
e|---------------------------------|
B|---------------------------------|
G|---------------------------------|              listen carefully here
D|---------------------------------|
A|-----0---------------0-----------|
D|-0-----3-------3\0-----3---5---5-|
   m   m m       m m   m m   m   m 

e|-------------------------------------|
B|-------------------------------------|
G|-------------------------------------|
D|-------------------------------------|
A|-----0---------------0---------3\2---|
D|-0-----3-------3\0-----3---3h5-----5-|
   m   m m       m m   m m       

e|---------------------|     e|---------------------|
B|---------------------|     B|---------------------|
G|---------------------|     G|---------------------|
D|---------------------| x3  D|---------------5p0---|
A|-----0---------3\2---|     A|-----0-----3h5-----3-|
D|-0-----3---3h5-----5-|     D|-0-----3-------------|
   m   m m                      m   m m 

2:06
e|---------------------------------|
B|---------------------------------|
G|---------------------------------|
D|-----7---5-----------7---5-------| 
A|-5-5---8---7-0-5---5---8---8-7-0-|
D|---------------------------------|
   m m m m m m m m m m m m m m m m 

e|---------------------------------|
B|---------------------------------|
G|---------------------------------|
D|-----7---5-----------7-----5---5\| x3
A|-5-5---8---7-0-5---5---8---5---5\|
D|---------------------------5---5\|
   m m m m m m m m m m m m 

e|-----------------|     e|-----------------|
B|-----------------|     B|-----------------|
G|-----------------|     G|-----------------|
D|-----7-----5---5\| x7  D|-----7-----------|
A|-5-5---8---5---5\|     A|-5-5---8---------|
D|-----------5---5\|     D|-----------------|
   m m m m                  m m 

2:45 distortion
e|-----------------------------------|
B|-----------------------------------|
G|-----------------------------------|
D|-0---7-3---5---5\-0---7-3---5---5\-|
A|-0---7-3---5---5\-0---7-3---5---5\-|
D|-0---7-3---5---5\-0---7-3---5---5\-|

e|-----------------------------------|
B|-----------------------------------|
G|-----------------------------------|
D|-0---7-3---5---5\-0---7-3---5--/10-| x2
A|-0---7-3---5---5\-0---7-3---5--/10-|
D|-0---7-3---5---5\-0---7-3---5--/10-|

e|-----------------------------------------------------|
B|-----------------------------------3-----------------|
G|-----------------------------------2-----------------|
D|-0---7-3---5---5\-0---7-3---5---5\-0-----------------|
A|-0---7-3---5---5\-0---7-3---5---5\-0-----------------|
D|-0---7-3---5---5\-0---7-3---5---5\-0-----------------|

3:28 clean
e|-------------------------|
B|-------------------------|
G|-------------------------|
D|-------10h12-------10h12-| x16
A|-10h12-------10h12-------|
D|-------------------------|
   m     m     m     m 

e|-------------------------|
B|-------------------------|
G|-------------------------|
D|-------10h12-------------| x15
A|-10h12-------10h12-------|
D|-------------------10h12-|
   m     m     m     m

e|-------------------------------------------------------------------------|
B|-------------------------------------------------------------------------|
G|-------------------------------------------------------------------------|
D|-------------------------------------------------------------------------|
A|-10h12-10h12-10h12-10h12-12~---12~---12----12----12p10-10-10-10----10----|
D|-------------------------------------------------------------------------|

e|-------------------------------------------------------------------------|
B|-------------------------------------------------------------------------|
G|-------------------------------------------------------------------------|
D|-------------------------------------------------------------------------|
A|-10----10h12-12-12-12---12----12----12b<13>-<13>-<13>-<13>-<13>-<13>-<13>|
D|-------------------------------------------------------------------------|

e|--------------------|     e|------------------------------------------|
B|--------------------|     B|------------------------------------------|
G|--------------------|     G|------------------------------------------|
D|-------14-10---12---| x2  D|-------14-10---12---12b<13>-<13>-<13>-<13>|
A|-12~----------------|     A|-12---------------------------------------|
D|--------------------|     D|------------------------------------------|

4:25
e|-----------------------------------------------------------------------|
B|-----------------------------------------------------------------------|
G|-----------------------------------------------------------------------|
D|-8--8--8--8--8--8--8-xx-5--5--5--5--5--5--5-xx-10-10-10-10-10-10-10-xx-|
A|-8--8--8--8--8--8--8-xx-5--5--5--5--5--5--5-xx-10-10-10-10-10-10-10-xx-|
D|-8--8--8--8--8--8--8-xx-5--5--5--5--5--5--5-xx-10-10-10-10-10-10-10-xx-|
   m  m  m  m  m  m  m    m  m  m  m  m  m  m    m  m  m  m  m  m  m 

e|-------------------------------------------------------------------|
B|-------------------------------------------------------------------|
G|-------------------------------------------------------------------|
D|-8--8--8--8--10-10-10-10-8-----8--8--8--8--8\-5-----5--5--5--5--5/-|
A|-8--8--8--8--8--8--8--8--8-----8--8--8--8--8\-5-----5--5--5--5--5/-|
D|-8--8--8--8--8--8--8--8--8-----8--8--8--8--8\-5-----5--5--5--5--5/-|
   m  m  m  m                    m  m  m  m           m  m  m  m 

e|----------------------------------------------|
B|----------------------------------------------|
G|----------------------------------------------|
D|-10-----10--10--10--10--10b-0-----------------|
A|-10-----10--10--10--10--10b-0-----------------|
D|-10-----10--10--10--10--10b-0-----------------|
          m   m   m   m   

4:48 distortion!
e|---------------------------------|
B|---------------------------------|
G|---------------------------------|
D|-3p0-0-1p0-0-3p0-0-0-3p0-1p0-3h4-| x4
A|-3p0-0-1p0-0-3p0-0-0-3p0-1p0-3h4-|
D|-3p0-0-1p0-0-3p0-0-0-3p0-1p0-3h4-|

 
                                SOLO

4:56
e|-/17-17-17-17-17-17-17-17-17-17-17-17-17-17-|
B|-/17-17-17-17-17-17-17-17-17-17-17-17-17-17-|
G|-/14-14-14-14-14-14-14-14-14-14-14-14-14-14-|
D|--------------------------------------------| x2
A|--------------------------------------------|
D|--------------------------------------------|

e|-/17-17-17-17-17-17-17-17-17-17-17-17-------|
B|-/17-17-17-17-17-17-17-17-17-17-17-17-17-17-|
G|-/14-14-14-14-14-14-14-14-14-14-14-14-------|
D|--------------------------------------14-14-| 
A|--------------------------------------------|
D|--------------------------------------------|
  open wah

e|--------------------------------------------|
B|-17\15-15-15\13-13-13/15-15-15-15-15-15\--/-|
G|--------------------------------------------|
D|-14\12-12-12\10-10-10/12-12-12-12-12-12\--/-|
A|--------------------------------------------|
D|--------------------------------------------|

e|-------------------------------------------------------------------------|
B|-------------------------------------------------------------------------|
G|-14-14-14-14-14-14-12/14-14-14-14-14-10/14-14-14-14-14-14-14-14\12-12-12-|
D|-------------------------------------------------------------------------|
A|-12-12-12-12-12-12-10/12-12-12-12-12-10/12-12-12-12-12-12-12-12\10-10-10-|
D|-------------------------------------------------------------------------|

e|-------------------------------------------------------------------------|
B|-------------------------------------------------------------------------|
G|-10/12-12-12\1010107-7-7-7-7-7-7-7-7-7-7-7-7-7-7-7-7-7-7-7-7-7-7-7-7-7-7-|
D|-------------------------------------------------------------------------|
A|-8-/10-10-10\8-8-8-5-5-5-5-5-5-5-5-5-5-5-5-5-5-5-5-5-5-5-5-5-5-5-5-5-5-5-|
D|-------------------------------------------------------------------------|

e|----------------------------------------|
B|-3---------------------3----------------|
G|-5b<7>--------br-------5b<7>------------|
D|----------------------------------------|
A|----------------------------------------|
D|----------------------------------------|

5:26 close wah
e|---------------------------------|
B|---------------------------------|
G|---------------------------------|
D|-0---7-1-----1-3-----3-5---10/12-| x3
A|-0---7-1-----1-3-----3-5---10/12-|
D|-0---7-1-----1-3-----3-5---10/12-|

e|--------------------------------------------------|
B|--------------------------------------------------|
G|--------------------------------------------------|
D|-0---7-1-----1-3-----3-5b---------0---------------|
A|-0---7-1-----1-3-----3-5b---------0---------------|
D|-0---7-1-----1-3-----3-5b---------0---------------|

5:56 clean
e|---------------------------------------|
B|---------------------------------------|
G|---------------------------------------|
D|-7-------------------7-------5---------|
A|---------------------------------------|
D|---------------------------------------|

e|---------------------------------------|
B|---------------------------------------|
G|---------------------------------------|
D|-7-------5--------0-3------------------|
A|--------------------1------------------|
D|--------------------1------------------|


>:)


| /  slide up
| \  slide down
| h  hammer-on
| p  pull-off
| ~  vibrato
| +  harmonic
| x  Mute note
Suggest correction
comments
print report bad tab
guest
You may want to rate the tab now too:
select rating
Wanna post a correction for this tab? Suggest correction