Oops, an error
Loading. Please wait.

Hooker With A Penis tab

version 1
version 1

Whole song

Interactive

by Tool
36,154 views 60 this week
8 commentsread comments
1 2 3 4 5
x 20
add to favorites
×
Save as Personal and add changes to this tab that will be seen only by you. Learn more ›
×
You can save this tab as Personal to edit and correct it or add notes. All changes will be seen only by you. Learn more »
launch autoscroll
font size
0
reset
how to read this tab
guitar tuner
backing track
0:00
0:00
edit
Autoscroll
slow
fast
+/-
esc
set tempo
stop
Artist: Tool
Track: Hooker With A Penis
Album: Aenima
tuning: Drop D (DADGBE)
tabbed by: James Jarvis (canajun_eh2003@hotmail.com)

(heavy distortion with wah open)

*slow tempo*
E|----------------------------------------------|
B|----------------------------------------------|
G|----------------------------------------------|
D|----------------------------------------------|
A|----------------------------------------------|
D|--12-12-12-10-10-10-12b--12-12-10-10-12-12----|

(wah off)

E|-----------------------------------------------|
B|-----------------------------------------------|
G|-----------------------------------------------|
D|--12-12-12-10-10-10-12b--12-12-10-10-12-12-----| x2
A|--12-12-12-10-10-10-12b--12-12-10-10-12-12-----|
D|--12-12-12-10-10-10-12b--12-12-10-10-12-12-----|

*fast tempo*
E|---------------------------------------------------|
B|---------------------------------------------------|
G|---------------------------------------------------|
D|--10h12-12--10h12-12--10h12-12--10h12-10--10-10----| x4
A|--10h12-12--10h12-12--10h12-12--10h12-10--10-10----|
D|--10h12-12--10h12-12--10h12-12--10h12-10--10-10----|

E|-------------------------------------------------|
B|-------------------------------------------------|
G|--7-7-7-7-7-7-7-7-7--9-9--5-5-5-5-5-5-5-5-5--9---|
D|-------------------------------------------------|
A|--5-5-5-5-5-5-5-5-5--7-7--3-3-3-3-3-3-3-3-3--7---|
D|-------------------------------------------------|

E|---------------------------------------------------------|
B|---------------------------------------------------------|
G|--7-7-7-7-7-7-7-7-7--9-9--17-17-17-17-17b17b17b17b17b----|
D|---------------------------------------------------------|
A|--5-5-5-5-5-5-5-5-5--7-7--15-15-15-15-15b15b15b15b15b----|
D|---------------------------------------------------------|

E|--------------|
B|--------------|
G|--------------|
D|--------------| x16
A|--------------|
D|--3p0--0--3---|
  pm - - - -|

E|---------------------------------------------------|
B|---------------------------------------------------|
G|---------------------------------------------------|
D|--10h12-12--10h12-12--10h12-12--10h12-10--10-10----| x4
A|--10h12-12--10h12-12--10h12-12--10h12-10--10-10----|
D|--10h12-12--10h12-12--10h12-12--10h12-10--10-10----|

E|-----------------------|
B|--3-------b------------|
G|--2-------b------------|
D|--0--------------------|
A|--0--------------------|
D|--0--------------------|

E|-------------------------------------------------|
B|-------------------------------------------------|
G|-------------------------------------------------|
D|-------------------------------------------------|
A|-------------------------------------------------|
D|--3p0-0-0-0-0-0-0-0-0-0---3p0-0-0-0-0-0-0-0-0-0--|
   pm - - - - - - - - - - - - - - - - - - - - - -|

E|-----------------------------------------------------|
B|-----------------------------------------------------|
G|-----------------------------------------------------|
D|------------------------------------------------0-0--|
A|----------------------------------------------0-0-0--|
D|--3p0-0-0-0-0-3p0-0-0-0-0---3p0-0-0-0-0-3p0-0-0-0-0--|
   pm - - - - - - - - - - - - - - - - - - - |

E|-----------------------------------------------|
B|-----------------------------------------------|
G|-----------------------------------------------|
D|---0-10-10--0-5-5-5--0-3p0-0-0-0-0-0-0-0-0-0---|
A|---0-10-10--0-5-5-5--0-3p0-0-0-0-0-0-0-0-0-0---|
D|---0-10-10--0-5-5-5--0-3p0-0-0-0-0-0-0-0-0-0---|

E|---------------------------------------------|
B|---------------------------------------------|
G|---------------------------------------------|
D|---0-3-3--0-5-5-5--0-3p0-0-0-0-0-0-0-0-0-0---|
A|---0-3-3--0-5-5-5--0-3p0-0-0-0-0-0-0-0-0-0---|
D|---0-3-3--0-5-5-5--0-3p0-0-0-0-0-0-0-0-0-0---|

E|-----------------------------------------------|
B|-----------------------------------------------|
G|-----------------------------------------------|
D|---0-10-10--0-5-5-5--0-3p0-0-0-0-0-0-0-0-0-0---|
A|---0-10-10--0-5-5-5--0-3p0-0-0-0-0-0-0-0-0-0---|
D|---0-10-10--0-5-5-5--0-3p0-0-0-0-0-0-0-0-0-0---|

E|-----------------------|
B|-----------------------|
G|-----------------------|
D|---0-3-3--0-5-5-5--0---|
A|---0-3-3--0-5-5-5--0---|
D|---0-3-3--0-5-5-5--0---|

E|-------------------------------------------------|
B|-------------------------------------------------|
G|-------------------------------------------------|
D|-------------------------------------------------|
A|-------------------------------------------------|
D|--3p0-0-0-0-0-0-0-0-0-0-0-0-0-0-0-0-0-0-0-0-0-0--|
   pm - - - - - - - - - - - - - - - - - - - - - -|

E|-------------------------------------------------|
B|-------------------------------------------------|
G|--(w/delay)-------------(w/delay)----------------|
D|-------------------------------------------------|
A|--3h5-------------------3h5----------------------|
D|------0-0-0-0-0-0-0-0-0-----0-0-0-0-0-0-3-00-3---|
  pm - - - - - - - - - - - - - - - - - - - - - -|

*rest for 3.5 bars*

E|---------------------------------------------|
B|---------------------------------------------|
G|---------------------------------------------|
D|---------------------------------------------|
A|---------------------------------------------|
D|--3-00-3-----3-00-3-----3-00-3----3-00-3b----|
   pm - - - - - - - - - - - - - - - - - |

E|-------------------------------------------------|
B|-------------------------------------------------|
G|-------------------------------------------------|
D|-------------------------------------------------|
A|-------------------------------------------------|
D|--3p0-0-0-0-0-0-0-0-0-0---3p0-0-0-0-0-0-0-0-0-0--|
   pm - - - - - - - - - - - - - - - - - - - - - -|

E|-----------------------------------------------------|
B|-----------------------------------------------------|
G|-----------------------------------------------------|
D|------------------------------------------------0-0--|
A|----------------------------------------------0-0-0--|
D|--3p0-0-0-0-0-3p0-0-0-0-0---3p0-0-0-0-0-3p0-0-0-0-0--|
  pm - - - - - - - - - - - - - - - - - - - |

E|-----------------------------------------------|
B|-----------------------------------------------|
G|-----------------------------------------------|
D|---0-10-10--0-5-5-5--0-3p0-0-0-0-0-0-0-0-0-0---|
A|---0-10-10--0-5-5-5--0-3p0-0-0-0-0-0-0-0-0-0---|
D|---0-10-10--0-5-5-5--0-3p0-0-0-0-0-0-0-0-0-0---|

E|---------------------------------------------|
B|---------------------------------------------|
G|---------------------------------------------|
D|---0-3-3--0-5-5-5--0-3p0-0-0-0-0-0-0-0-0-0---|
A|---0-3-3--0-5-5-5--0-3p0-0-0-0-0-0-0-0-0-0---|
D|---0-3-3--0-5-5-5--0-3p0-0-0-0-0-0-0-0-0-0---|

E|-----------------------------------------------|
B|-----------------------------------------------|
G|-----------------------------------------------|
D|---0-10-10--0-5-5-5--0-3p0-0-0-0-0-0-0-0-0-0---|
A|---0-10-10--0-5-5-5--0-3p0-0-0-0-0-0-0-0-0-0---|
D|---0-10-10--0-5-5-5--0-3p0-0-0-0-0-0-0-0-0-0---|

E|-----------------------|
B|-----------------------|
G|-----------------------|
D|---0-3-3----5-5-5--0---|
A|---0-3-3----5-5-5--0---|
D|---0-3-3----5-5-5--0---|

E|--------------------------------------------|
B|--------------------------------------------|
G|--------------------------------------------|
D|---0-0-0-3-0-5-5-0-3--0-0-0-3-0-6-6-5\3-----| x3
A|---0-0-0-3-0-5-5-0-3--0-0-0-3-0-6-6-5\3-----|
D|---0-0-0-3-0-5-5-0-3--0-0-0-3-0-6-6-5\3-----|

E|-------------------------------------------------------|
B|-------------------------------------------------------|
G|-------------------------------------------------------|
D|---0-0-0-15-0-17-17-0-15--0-0-0-15-0-18-18-17\12\\\----|
A|---0-0-0-15-0-17-17-0-15--0-0-0-15-0-18-18-17\12\\\----|
D|---0-0-0-15-0-17-17-0-15--0-0-0-15-0-18-18-17\12\\\----|

E|-------------------------------------------------------|
B|-------------------------------------------------------|
G|-------------------------------------------------------|
D|---7-0--7p0-6-0--6p0-5--0-5-0--3-0-10h12-10h12-10h12---|
A|---7-0--7p0-6-0--6p0-5--0-5-0--3-0-10h12-10h12-10h12---|
D|---7-0--7p0-6-0--6p0-5--0-5-0--3-0-10h12-10h12-10h12---|

E|------------------------------------------|
B|------------------------------------------|
G|----------------------------------5---7---|
D|---7-0--7p0-6-0--6p0-5--0-5-0--3----------|
A|---7-0--7p0-6-0--6p0-5--0-5-0--3--3---5---|
D|---7-0--7p0-6-0--6p0-5--0-5-0--3----------|

E|----------------------------------------------------------|
B|----------------------------------------------------------|
G|---9-9-9-9-9-9\8-8-8-8-8-8/12-12-12-12-12-12-12b-----12---|
D|--------------------------------------------------12------|
A|---7-7-7-7-7-7\6-6-6-6-6-6/10-10-10-10-10-10-10b----------|
D|----------------------------------------------------------|

E|--------------------------------------------------------------------------------------|
B|--------------------------------------------------------------------------------------|
G|--------------------------------------------------------------------------------------|
D|---12--13-12h13-12h13-12h13--12--13-12h13-12h13-12h13--12--13-12h13-12h13-12h13--10b--|
A|--------------------------------------------------------------------------------------|
D|--------------------------------------------------------------------------------------|

*hold and release*
E|---------------------------(wah open)------------------------------------|
B|-----------------------------10------------------------------------------|
G|-----------------------------9-------------------------------------------|
D|---7--0-7-6--0-6-0---3---5---7--(bend notes and close the wah slowly)----|
A|---7--0-7-6--0-6-0---3---5---7-------------------------------------------|
D|---7--0-7-6--0-6-0---3---5---7-------------------------------------------|

      x9      x4
E|-------|---------|
B|--------|--------|
G|--------|--------|
D|---1-0--|--1-0---|
A|---1-0--|--1-0---|
D|---1-0--|--1-0---|
   pm-

*rest*
E|---------------------------------------------------------------------------------------|
B|---------------------------------------------------------------------------------------|
G|---------------------------------------------------------------------------------------|
D|---0-00-12--3h5-10h12--0-00-8--3h5-10h12--0-00-12--3h5-10h12--0-00-13-0-00-10-3h5-3p0--| x2
A|---0-00-12--3h5-10h12--0-00-8--3h5-10h12--0-00-12--3h5-10h12--0-00-13-0-00-10-3h5-3p0--|
D|---0-00-12--3h5-10h12--0-00-8--3h5-10h12--0-00-12--3h5-10h12--0-00-13-0-00-10-3h5-3p0--|

E|----------------------------------------------------|
B|----------------------------------------------------|
G|----------------------------------------------------|
D|---10h12-12--10h12-12--10h12-12--10h12-10--10-10----| x4
A|---10h12-12--10h12-12--10h12-12--10h12-10--10-10----|
D|---10h12-12--10h12-12--10h12-12--10h12-10--10-10----|

E|------------------------------|
B|------------------------------|
G|------------------------------|
D|---12~-12~-12~-12~-10~-10~----| x4
A|---12~-12~-12~-12~-10~-10~----|
D|---12~-12~-12~-12~-10~-10~----|

E|---------------|
B|---------------|
G|---------------|
D|---12\\\0------|
A|---12\\\0------|
D|---12\\\0------|

thats all, enjoy!

************************************

| b  Bend
| h  Hammer-on
| p  Pull-off
| \  Slide down
| /  Slide up
| ~  Vibrato

************************************

            
            
Suggest correction
Creating personal tab
Creating personal tab
You can edit any tab online and save it as your Personal.

You can edit, replace or remove any tab part or add personal notes – all changes will be seen only by you.

Personal tabs can be accessed anytime from any device, even offline.
Learn more »
comments
print report bad tab
8 comments total. Showing first comments.
0 reply
liquidmetall 10 Mar 24, 2005 07:00 PM

you can if you palm mute lightly

0 reply
punk-man12 31 Sep 26, 2006 06:24 PM

Nice tab man, this is a ****ing sweet song. 5 stars

0 reply
browar 1,097 Nov 28, 2007 03:21 AM

intro goes:

|---------------------------|
|---------------------------|
|---------------------------|
|---------------------------|
|-12-12-12 -12-12-12-12-12b-|
|--0--0--0-10-10-10--0--0---|

guest
Wanna post a correction for this tab? Suggest correction