Oops, an error
Loading. Please wait.

Hooker With A Penis bass

version 2
version 2

Whole song

Interactive

by Tool
11,148 views 6 this week
5 commentsread comments
1 2 3 4 5
x 4
add to favorites
×
Save as Personal and add changes to this tab that will be seen only by you. Learn more ›
×
You can save this tab as Personal to edit and correct it or add notes. All changes will be seen only by you. Learn more »
launch autoscroll
font size
0
reset
guitar tuner
backing track
0:00
0:00
edit
Autoscroll
slow
fast
+/-
esc
set tempo
stop
-------------------------------------------------------------------------------
			     TOOL - Hooker with a Penis (Ænima, 1996)
-------------------------------------------------------------------------------
Legend

| /  slide up
| \  slide down
| h  hammer-on
| p  pull-off
| ~  vibrato // let note ring
| b  bend
| +  harmonic
| x  Mute note
===============================================================================


Tabbed By : Dr. Robert
e-mail: r0berito@gmail.com (don't bother spamming)

Tuning: Drop D = DADG
Play with a PICK


~ 00:16

G|---------------------------------------------|
D|.-------------------------------------------.|
A|.-------------------------------------------.| x4
D|---10h12-0--10h12-0--10h12-0--10h12-0--10-10-|

~ 00:27

G|-----------------------------------------|
D|.---------------------------------------.|
A|.---------------------------------------.| x4
D|--10h12-12//15-0--10h12-12//15-0--10-10--|

~ 00:38

G|-------------------------------------------|
D|.-----------------------------------------.|
A|.-----------------------------------------.| x4
D|--3-0-0-3---3-0-0-3---3-0-0-3---3-0-0-3----|

~ 00:54

G|---------------------------------------------|
D|.-------------------------------------------.|
A|.-------------------------------------------.| x3
D|---10h12-0--10h12-0--10h12-0--10h12-0--10-10-|

~ 01:01

G|-----------------------------------------|
D|.---------------------------------------.|
A|.---------------------------------------.| x1
D|--10h12-12//15-0--10h12-12//15-0--10-10--|

~ 01:04

G|-------------------------------------------|
D|.-----------------------------------------.|
A|.-----------------------------------------.| x2
D|--3-0-0-3---3-0-0-3---3-0-0-3---3-0-0-3----|

~ 01:12

G----------------------------------------------------------------------------|
D----------------------------------------------------------------------------|
A----------------------------------------------------------------------------|
D-3-0-0-0-0-0-0-0-0-3-0-0-0-0-0-0-0-0-3-0-0-0-0-0-0-0-0-3-0-0-0--3--0-0-0-0--|

~ 01:19

G----------------------------------------|
D----------------------------------------|
A----------------------------------------|
D-10-10-10-10\\5-5-5-5p3p0-0-0-0-x-x-x-x-|

~ 01:23

G--------------------------------------------|
D--------------------------------------------|
A--------------------------------------------|
D-3-3-3-3/5-5-5-5--3p0-0-0-10h12-10h12-10h12-|

~ 01:27

G----------------------------------------|
D----------------------------------------|
A----------------------------------------|
D-10-10-10-10\\5-5-5-5p3p0-0-0-0-x-x-x-x-|

~ 01:31

G----------------------|
D----------------------|
A----------------------|
D-3-3-3-3/5-5-5-5--3p0-|

~ 01:33

G--------------------------------------------------------------------------|
D--------------------------------------------------------------------------|
A--------------------------------------------------------------------------|
D-0-0-0-0-0-0-0-0-3-0-0-0-0-0-0-0-0-3-0-0-0-0-0-0-0-0-3-0-0-0--3--0-0-0-0--|

~ 01:41

G|-------------------------------------------------------------|
D|.-----------------------------------------------------------.|
A|.--------------3-3-3-2-2-2----------------12-12-12-11-11-11-.| x6
D|--3p0-0-0-0-0---------------12p0-0-0-0-0---------------------|

~ 02:04

G----------------------------------------|
D----------------------------------------|
A----------------------------------------|
D-10-10-10-10\\5-5-5-5p3p0-0-0-0-x-x-x-x-|

~ 02:07

G--------------------------------------------|
D--------------------------------------------|
A--------------------------------------------|
D-3-3-3-3/5-5-5-5--3p0-0-0-10h12-10h12-10h12-|

~ 02:11

G----------------------------------------|
D----------------------------------------|
A----------------------------------------|
D-10-10-10-10\\5-5-5-5p3p0-0-0-0-x-x-x-x-|

~ 02:15

G-------------|
D-------------|
A-------------|
D-3-33-3/5-55-|

~ 02:17

G|---------------------------------------|
D|.-------------------------------------.|
A|.-------------------------------------.| x4
D|--0-0-0-3-0-5-5-5-3-0-0-0-0-3-0-6-6-5--|

~ 02:31

G--------|
D--------|
A--------|
D-12\\\\-

~ 02:35

G|-------------------------------------------------------------------------------------------------------|
D|.-----------------------------------------------------------------------------------------------------.|

x5
D|--7--7-7-7-7--0--0-0-7-7-6--6-6-6-6--0--0-0-6-6-5--5-5-5-5--0--0-0-5-5-33-3-0--10h12-10h12-10h12-------|

~ 03:14

G---------------------------------------------------------------|
D---------------------------------------------------------------|
A---------------------------------------------------------------|
D--7--7-7-7-7--0--0-0-7-7-6--6-6-6-6--0--0-0-6-0~~-3~~-5~~-7b~~-|

~ 03:23

G|--------------------------------------------------|
D|.------------------------------------------------.|
A|.------------------------------------------------.| x4
D|--3p0-0-3p0-0--6-6-6-5-5-5--3p0-0-3p0-0--7-7-6-6--|

~ 03:36

G------------------|
D------------------|
A------------------|
D-0-(tremolo pick)-

~ 03:42

G-------------------------|
D-------------------------|
A-5-5--5-5--5-5--5-5--5-5-|
D-0-0--0-0--0-0--0-0--0-0-|

Shut up and...

~ 03:47

G|---------------------------------------------|
D|.--------------------------------------------|
A|.--------5---------3h5-------------------3h5-|
D|--0-0-0-----0--3h5------0-0-0--8--0--3h5-----|

G---------------------------------------------------------|
D--------------------------------------------------------.|
A---------5---------3h5---------6------------3-----------.| x2
D--0-0-0-----0--3h5------0-0-0-----0--0-0-0-----0--3~-h5--|

~ 04:02

G|---------------------------------------------|
D|.-------------------------------------------.|
A|.-------------------------------------------.| x3
D|---10h12-0--10h12-0--10h12-0--10h12-0--10-10-|

~ 04:10
						x1
G|-----------------------------------------|
D|.---------------------------------------.|
A|.---------------------------------------.|
D|--10h12-12//15-0--10h12-12//15-0--10-10--|

~ 04:13

G-------------------|
D-------------------|
A-------------------|
D-12-(tremolo pick)-

~ 04:23

G-------------|
D-------------|
A-------------|
D-12\\\\\\\\--

            
            
Suggest correction
Creating personal tab
Creating personal tab
You can edit any tab online and save it as your Personal.

You can edit, replace or remove any tab part or add personal notes – all changes will be seen only by you.

Personal tabs can be accessed anytime from any device, even offline.
Learn more »
comments
print report bad tab
5 comments total. Showing first comments.
+1 reply
xmari3nx 31 May 29, 2008 11:35 AM

great tab

+2 reply
Tad_Eats_People 151 Dec 18, 2008 02:43 PM

No one should play bass with a pick.

+2 reply
The 6th String 100 Nov 03, 2010 06:17 PM

^ is a faggot. Great tab.

guest
You may want to rate the tab now too:
select rating
Wanna post a correction for this tab? Suggest correction