Oops, an error
Loading. Please wait.

Hush bass

version 2
version 2

Whole song

Interactive

by Tool
11,829 views 3 this week
14 commentsread comments
1 2 3 4 5
x 9
add to favorites
×
Save as Personal and add changes to this tab that will be seen only by you. Learn more ›
×
You can save this tab as Personal to edit and correct it or add notes. All changes will be seen only by you. Learn more »
launch autoscroll
font size
0
reset
guitar tuner
edit
Autoscroll
slow
fast
+/-
esc
set tempo
stop
Author
Unregistered
The other tab is wrong and incomplete. Here is the correct version of the entire song. 
D tuning. If there's only one line in the tab, it's the #4 E string tuned to D, but you 
probably have figured that out.


[Intro]

G|--------------------------7h9---------------------------|
D|-------7h9----------------------------------------------| 
A|------------0-7h8-0-5h7-0-------------------------------|
D|-7h9xx--------------------------------------------------|(x6)


[Riff 1]

G|----------------------------|
D|----------------------------|
A|----------------------------|
D|-7h9-x-9-xxx-2-3-2-0-0-12---|(x4)

G|----------------------------|
D|----------------------------|
A|----------------------------| 
D|-7h9-x-9-xxx-3-3-3-2-2-2-0--|(this part may be played on the fourth time)


[Verse]

G|----------------|
D|----------------|
A|----------------|
D|-3-3-3-2-2-2-0--|


The tricky part is knowing when to play this. Guitar will be playing this:

G|-------------------------------------------|
D|-------------------------------------------|
A|-------------------------------------------|
D|-2-3-2-0-0-12-7----------------------------|(x4)


[Verse]  (x4)
[Riff 1] (x4) (play it palm muted.)


[Chorus]

G|-----------------------------------------------------|
D|-9---9---9-------------------------------------------|
A|-----------------------------------------------------|
D|---9---9---9-0-0-0-0-0-------------------------------|(x4)


[Riff 1] (x4)
[Verse]  (x4)
[Riff 1] (x4) (play it palm muted.)
[Chorus] (x4)


[Bridge]

G|------------------------------------|
D|------------------------------------|
A|------------------------------------|
D|-12-x-3-x-2-12-x-3-x-2-12-x-3-x-2---|(x4)

G|------------------------------------|
D|------------------------------------|
A|------------------------------------|
D|-3-2-2-3-2-2-3-2-2-3-2-2-3-2-2------|(x4)
                          |-----| 

[Riff 1]
[Verse]


[Outro]

G|-----------------9-9-------------------------------------|
D|-----------------9-9-------------------------------------|
A|-----------------7-7-------------------------------------|
D|-7-7-7-7-7-7-9-------------------------------------------|


That's it. Intro's the hardest part, along with timing. Listen to the song and you 
be alright. I'm 99.9% sure this is correct.
Tabbed by Justin.



************************************

| h       Hammer-on
| x       Dead note
| |-----| on these 3 notes, guitar plays 10-10-10-|

************************************

            
            
Suggest correction
Creating personal tab
Creating personal tab
You can edit any tab online and save it as your Personal.

You can edit, replace or remove any tab part or add personal notes – all changes will be seen only by you.

Personal tabs can be accessed anytime from any device, even offline.
Learn more »
comments
print report bad tab
14 comments total. Showing first comments.
-1 reply
harl91 373 Feb 22, 2006 03:55 PM

good job! sounds good

-1 reply
Heartika 40 Apr 07, 2007 06:41 AM

nice job yea the other tab sux, but i cant seem to get part of it its way to confusing lol

-1 reply
xavier_rudd_fan 21 May 06, 2007 01:56 AM

THis tab is way better, other tab sucks, you done a great job

guest
Wanna post a correction for this tab? Suggest correction