Oops, an error
Loading. Please wait.

Intension Tab

version 1
version 1

Intro

Whole song

Interactive

by Tool
17,169 views 57 this week
7 commentsread comments
1 2 3 4 5
excellent!
x 9
add to favorites
launch autoscroll
font size
0
reset
how to read this tab
guitar tuner
Tab Pro tools
  • play this tab
  • loop segment
  • change instrument
  • show fretboard
  • metronome
Autoscroll
slow
fast
+/-
esc
set tempo
stop
Contributor
Difficulty
Tuning
intermediate
D A D G B E
Band: Tool
Album: 10,000 Days
Song: Intension

Tuning: Drop D

s=slide

0:33 (Possibly guitar here)
|------------------------|------------------|---------------------|
|------------------------|------------------|---------------------|
|-12--11----7s9-11--9-x2-|-7--5----5s7-9--7-|-12--11----7s9-11--9-|
|------------------------|------------------|---------------------|
|------------------------|------------------|---------------------|
|------------------------|------------------|---------------------|

1:14 AWESOME Bass riff
|--------------------|
|--------------------|
|--------------------|
|-7---5---\-10s5s8s2-|

3:52
|------------------------------------------|
|------------------------------------------|
|---9--7-9----9--7----9-7------5------7----|
|-7---------7------7------7--7------5---X7-|
|------------------------------------------|
|------------------------------------------|

5:06
|---------|---------------------------------------|---|
|-----5---|---------------------------------------|---|
|---5-----|---9-------14-----12-----10----9-------|---|
|-7-----5-|-7----7S12-----10-----10----10---10-x4-|-7-|
|---------|---------------------------------------|---|
|---------|---------------------------------------|---|

5:28
|-----------------------------|---------------------------------------------------|
|-----------------------------|---------------------------------------------------|
|-4--5p4p0-2-------4--5p4p0-2-|---9----7----4--5p4p0-2----0----2----4--5p4p0-2----|
|-----------------------------|------------------------------------------------x2-|
|-------------0---------------|-0----0----0-------------0----0----0---------------|
|-----------------------------|---------------------------------------------------|

5:52
|-------------------------|----------------------------------------------|
|-------------------------|----------------------------------------------|
|-7-9--7-9--7-9--9-7------|-7-9----9--7-9--9-7--------9--7-9----9--9-7---|
|--------------------0-x2-|------7-------------0----7---------7--------0-|
|-------------------------|----------------------------------------------|
|-------------------------|----------------------------------------------|

6:12
|------------------------------------------|
|------------------------------------------|
|---9--7-9----9--7----9-7------5------7----|
|-7---------7------7------7--7------5---X2-|
|------------------------------------------|
|------------------------------------------|

6:58 (Again, Possibly guitar here)
|----------------------|
|----------------------|
|-10--9----5s7-9--7-x2-|
|----------------------|
|----------------------|
|----------------------|
comments
print report bad tab
7 comments total. Showing first comments.
0 reply
elusivEuphoria wrote on August 8 2006, 05:28 pm

Okay i've been going over this again and again, and i think (and im pretty much 99.9% sure about this) that at least the intro to this tab is something like a half step off. I double and triple checked the tuning of my guitar over and over again; and every time i play this i have to play it one fret higher that what you have tabbed here.

For Example, what you have tabbed for the riff that comes in at about 3:50... i think its this,

|-----------------------------------------------|
|---10--8-10----10--8----10-8------6-----8------|
|-8-----------8-------8-------8--8-----6--------|
|-----------------------------------------------|
|-----------------------------------------------|
|-----------------------------------------------|

Now my hat's off to you cuz i suck at tabbing shit cuz i just dont have the patience. so i wouldnt have figured this out with ur tab, but every time i play it this way with the CD behind it... this sounds correct. I havent tried the rest of the song to find out how far this goes... but this is what im getting. I suppose it possible i could have f-ed something up.

0 reply
elusivEuphoria wrote on August 8 2006, 05:30 pm

Scratch that last one... i meant to tab this...


|-----------------------------------------------|
|-----------------------------------------------|
|---10--8-10----10--8----10-8------6-----8------|
|-8-----------8-------8-------8--8-----6--------|
|-----------------------------------------------|
|-----------------------------------------------|

0 reply
elusivEuphoria wrote on August 12 2006, 01:50 am

sry i ****ed up... all good, me and my stupid ears!

I want to post or [tab]
guest
You may want to rate the tab now too:
select rating
Please do not post tabs as comments. Select "correction" instead!