Oops, an error
Loading. Please wait.

Jambi tab

version 1
version 1

Whole song

Interactive

by Tool
117,766 views 111 this week
23 commentsread comments
1 2 3 4 5
x 30
add to favorites
×
Save as Personal and add changes to this tab that will be seen only by you. Learn more ›
×
You can save this tab as Personal to edit and correct it or add notes. All changes will be seen only by you. Learn more »
launch autoscroll
font size
0
reset
how to read this tab
guitar tuner
backing track
0:00
0:00
edit
Autoscroll
slow
fast
+/-
esc
set tempo
stop
[Riff 1] Intro (0:00-0:14)

e------------------------------------------|
B------------------------------------------|
G------------------------------------------|
D------------------------------------------|
A------------------------------------------|
D-3p2p0-0000-5p4p0-00-3p2p0-00-10p8p0-0000-|
  +++++ ++++ +++++ ++ +++++ +++++++++ ++++


[Riff 2] (0:15-1:02)
e-----------------------------------------|
B-----------------------------------------|
G-----------------------------------------|
D-----------------------------------------|
A-----------------------------------------|
D-3p2p0-0000-3p2p0-0000-0-----------------|
  +++++ ++++ +++++ ++++ +

Bass Break (1:03-1:14)


[Riff 3] (1:15-1:42)

e-----------------------------------------|
B-----------------------------------------|
G-----------------------------------------|
D-----------------------------------------|
A-----------------------------------------|
D-000000-000000-0-------------------------|
  ++++++ ++++++ +


[Riff 4*] (1:43-1:51)

*NOTE: on the forth (and last) time of playing this riff, you will only play the first
and let the last note of that part (being the 3rd fret on the D string,) ring, instead of
it.

e-----------------------------------------|
B-----------------------------------------|
G-----------------------------------------|
D-----------------------------------------|
A-----------------------------------------|
D-0-3355-3-3355-33-0----------------------|
  + ++++ + ++++ ++ +


[Riff 5] (1:44-2:03)

e-----------------------------------------|
B-----------------------------------------|
G-----------------------------------------|
D-----------------------------------------|
A-0------3--------0-----------------------|
D-0-3355-3-335533-0-----------------------|
    ++++   ++++++

Bass Break 2 (2:03-2:13)

Variation of Riff 3 (2:13-2:33)
*It's getting tedious, listen, you'll hear the exact ryhthm =p*

Repeat Riff 4 (2:33-2:42)

Repeat Riff 5 (2:42-3:03)

Repeat Riff 2 (3:03-3:40)

Variation of Riff 3 (3:41-3:55)


[Riff 6] (3:56-)

e-----------------------------------------|
B-----------------------------------------|
G-----------------------------------------|
D-----------------------------------------|
A-----------------------------------------|
D-000-000-00-000-0------------------------|
  +++ +++ ++ +++


[Solo 1!] (4:09-5:00)

e-----------------------------------------|
B-----------------------------------------|
G-10~~~~/12-12/9~~~~7~~~7---9-------------| (2x)
D-----------------------------------------|
A-----------------------------------------|
D-----------------------------------------|

e---------------------------8----8----8---|
B-8-------10-8~~8h10p8--7~~~-7----7----7--|
G---10~~~~--------------------------------| (2x)
D-----------------------------------------|
A-----------------------------------------|
D-----------------------------------------|


[Riff 7] (5:01-5:13)

e-----------------------------------------|
B-----------------------------------------|
G-----------------------------------------|
D-----------------------------------------|
A----3p0--------3p0-3h5-------------------|
D-3h5---3~~~-3h5-------0~~~~--------------|

e-----------------------------------------|
B-----------------------------------------|
G-----------------------------------------| (2x)
D-----------------------------------------|
A----3p0------- -3p0-3h5------------------|
D-3h5---3/15~~~-3h5-------0~~~~-----------|

Do a pick scrape after this leading into the next riff. Make it sweet.


[Riff 8] (5:15-5:56)

e-----------------------------------------|
B-----------------------------------------|
G-----------------------------------------|
D-----------------------------------------|
A-00-00-00-000-000------------------------|
D-00-00-00-000-000------------------------|
  ++ ++ ++ +++ +++

e------------------------------------------|
B------------------------------------------|
G------------------------------------------|
D------------------------------------------|
A------------------------------------------|
D-00-00-00-000-000-------------------------|
  ++ ++ ++ +++ +++


[Riff 9] (5:56-6:36) Finally time to stop palm muting constantly!

e------------------------------------------|
B--10--------------------------------------|
G---9--------------------------------------|
D-0-7-0-3h5-3h5-3--3-3h5-5/7---------------|
A-0-7-0-3h5-3h5-3--3-3h5-5/7---------------|
D-0-7-0-3h5-3h5-3--3-3h5-5/7---------------|
                                            2x
e------------------------------------------|
B--10--------------------------------------|
G---9--------------------------------------|
D-0-7-0-3h5-3h5-3--3-----------------------|
A-0-7-0-3h5-3h5-3--3-----------------------|
D-0-7-0-3h5-3h5-3--3-3355223300------------|
                     ++++++++++

e-----------------------------------------|
B-----------------------------------------|
G---2-------------------------------------|
D-0---0-3h5-3h5-3~3-3h5-5/7---------------| 3x
A-----------------------------------------|
D-----------------------------------------|

e-----------------------------------------|
B-----------------------------------------|
G---2-------------------------------------|
D-0---0-3h5-3h5-3~3-3355223300------------|
A-----------------------------------------|
D-----------------------------------------|


[Long Outro] (6:36-7:28)

e-----------------------------------------|
B-----------------------------------------|
G-----------------------------------------|
D-----------------------------------------| 8x
A------3p0--------3p0-3h5-----------------|
D-0-3h5---3~~~-3h5-------0~~~~------------|

e-------------------------------------------------|
B-------------------------------------------------|
G-------------------------------------------------|
D-------------------------------------------------| 4x
A-3p2p0-0000-3p2p0-00-3p2p0-00-3p2p0-00-3p2p0-00--|
D-3p2p0-0000-3p2p0-00-3p2p0-00-3p2p0-00-3p2p0-00--|
  +++++ ++++ +++++ ++ +++++ ++ +++++ ++ +++++ ++

e-----------------------------------------|
B-----------------------------------------|
G-----------------------------------------|
D-----------------------------------------| 4x
A-00-000-000----3p0-3h5-------------------|
D-00-000-000-3h5--------------------------|
  ++ +++ +++

e-----------------------------------------|
B-----------------------------------------|
G-----------------------------------------|
D-----------------------------------------|
A----------------------0------------------|
D-00-000-00-00000-0000-0------------------|
  ++ +++ ++ +++++ ++++



************************************

h Hammer On
p Pull Off
+ Palm Muted
~ Vibrato
/ Slide

************************************

            
            
Suggest correction
Creating personal tab
Creating personal tab
You can edit any tab online and save it as your Personal.

You can edit, replace or remove any tab part or add personal notes – all changes will be seen only by you.

Personal tabs can be accessed anytime from any device, even offline.
Learn more »
comments
print report bad tab
23 comments total. Showing first comments.
0 reply
r18 92 May 19, 2006 10:16 PM

great tab man! the only thing is the 0000 on the first riff and the end of the bar...its only 00. Keep it up!

0 reply
Oakinator 10 May 20, 2006 08:37 PM

Great tab bro this song kicks ass! sounds really good. The only prob is the open chords at the end of the intro bar but it is easy enough to figure out...otherwise well done.

0 reply
sacredxdisorder 10 Jun 23, 2006 05:09 AM

good tab...i love jambi and all of 10,000 days

guest
You may want to rate the tab now too:
select rating
Wanna post a correction for this tab? Suggest correction