Oops, an error
Loading. Please wait.

Jambi tab

version 4
version 4

Whole song

Interactive

by Tool
65,186 views 51 this week
22 commentsread comments
1 2 3 4 5
x 24
add to favorites
×
Save as Personal and add changes to this tab that will be seen only by you. Learn more ›
×
You can save this tab as Personal to edit and correct it or add notes. All changes will be seen only by you. Learn more »
launch autoscroll
font size
0
reset
how to read this tab
guitar tuner
backing track
0:00
0:00
edit
Autoscroll
slow
fast
+/-
esc
set tempo
stop
Author
Difficulty
Unregistered
intermediate
[Intro]
E|-----------------------------------------|    |---|
B|-----------------------------------------|    |---|
G|-----------------------------------------|    |---|
D|-----------------------------------------| 6x |---| Last time
A|-----------------------------------------|    |---|
D|-3p2p0--0000-5p3p0-00-2p1p0-00-10p9p0-00-|    |-0-|
pm .      .... .     .. .     .. .      ..        .

E|---------------------------|
B|---------------------------|
G|---------------------------|
D|---------------------------| 20x
A|---------------------------|
D|-3p2p0-0000----3p2p0-00000-|
pm .     ....    .     .....

--Bass part--

E|---|------------------|
B|---|------------------|
G|---|------------------|
D|---|------------------| 11x
A|---|------------------|
D|-0-|-000000---0000000-|
pm .   ......   .......

E|--------------------|--------------------|--------------------|----------------------|
B|--------------------|--------------------|--------------------|----------------------|
G|--------------------|--------------------|--------------------|----------------------|
D|--------------------|--------------------|--------------------|----------------------|
A|--------------------|--------------------|--------------------|----------------------|
D|-0---33553---335533-|-0---33553---335533-|-0---33553---335533-|-0---3355<3>---335533-|
pm .   .....   ......   .   .....   ......   .   .....   ......   .   ....      ......

E|-----------------|-----------------|-----------------|-------------------|------|
B|-----------------|-----------------|-----------------|-------------------|------|
G|-----------------|-----------------|-----------------|-------------------|------|
D|-0------3--------|-0------3--------|-0------3--------|-0------3----------|-0~~~-|
A|-0------3--------|-0------3--------|-0------3--------|-0------3----------|-0~~~-|
D|-0-3355-3-335533-|-0-3355-3-335533-|-0-3355-3-335533-|-0-3355-3-33553p20-|-0~~~-|
pm   ....   ......     ....   ......     ....   ......     ....   ......

E|------------------|-------------------|-------------------|------------------|
B|------------------|-------------------|-------------------|------------------|
G|------------------|-------------------|-------------------|------------------|
D|------------------|-------------------|-------------------|------------------|
A|------------------|-------------------|-------------------|------------------|
D|-00-000-000-00000-|-000-000-000-00000-|-000-000-000-00000-|-000-000-000-0000-|
pm .. ... ... .....   ... ... ... .....   ... ... ... .....   ... ... ... ....

E|-------------------|-------------------|-------------------|------------------|
B|-------------------|-------------------|-------------------|------------------|
G|-------------------|-------------------|-------------------|------------------|
D|-------------------|-------------------|-------------------|------------------|
A|-------------------|-------------------|-------------------|------------------|
D|-000-000-000-00000-|-000-000-000-00000-|-000-000-000-00000-|-0000-0000-000000-|
pm ... ... ... .....   ... ... ... .....   ... ... ... .....   .... .... ......

E|--------------------|--------------------|--------------------|----------------------|
B|--------------------|--------------------|--------------------|----------------------|
G|--------------------|--------------------|--------------------|----------------------|
D|--------------------|--------------------|--------------------|----------------------|
A|--------------------|--------------------|--------------------|----------------------|
D|-0---33553---335533-|-0---33553---335533-|-0---33553---335533-|-0---3355<3>---335533-|
pm .   .....   ......   .   .....   ......   .   .....   ......   .   ....      ......

E|-----------------|-----------------|-----------------|-----------------|
B|-----------------|-----------------|-----------------|-----------------|
G|-----------------|-----------------|-----------------|-----------------|
D|-0------3--------|-0------3--------|-0------3--------|-0------3--------|
A|-0------3--------|-0------3--------|-0------3--------|-0------3--------|
D|-0-3355-3-335533-|-0-3355-3-335533-|-0-3355-3-335533-|-0-3355-3-335533-|
pm   ....   ......     ....   ......     ....   ......     ....   ......

Same as above, only with the drum beat it sounds off.
E|-----------------|-----------------|-----------------|-----------------|
B|-----------------|-----------------|-----------------|-----------------|
G|-----------------|-----------------|-----------------|-----------------|
D|-0------3--------|-0------3--------|-0------3--------|-0------3--------|
A|-0------3--------|-0------3--------|-0------3--------|-0------3--------|
D|-0-3355-3-335533-|-0-3355-3-335533-|-0-3355-3-335533-|-0-3355-3-335533-|
pm   ....   ......     ....   ......     ....   ......     ....   ......

E|---------------------------|
B|---------------------------|
G|---------------------------|
D|---------------------------| 16x
A|---------------------------|
D|-3p2p0-0000----3p2p0-00000-|
pm .     ....    .     .....

Crazy part. Learn the pattern from the start and its a piece of cake.
E|-----------------------------------------------------|-----------------------------------------------------|
B|-----------------------------------------------------|-----------------------------------------------------|
G|-----------------------------------------------------|-----------------------------------------------------|
D|-----------------------------------------------------|-----------------------------------------------------|
A|-----------------------------------------------------|-----------------------------------------------------|
D|00-000-000-00000-000-000-00000-00000-000-00000-00000-|000-000-000-00000-000-000-00000-00000-000-00000-00000|
pm .. ... ... ..... ... ... ..... ..... ... ..... .....   ... ... ... ..... ... ... 
... ..... .....

E|-----------------------|-----------------------|-----------------------|----------------------|
B|-----------------------|-----------------------|-----------------------|----------------------|
G|---------------------2-|---------------------2-|---------------------2-|----------------------|
D|---------------------0-|---------------------0-|---------------------0-|----------------------|
A|-0000--0000--00-0-0-00-|-0000--0000--00-0-0-00-|-0000--0000--00-0-0-00-|-0000--0000--00-0-0-0-|
D|-0000--0000--00-0-0-00-|-0000--0000--00-0-0-00-|-0000--0000--00-0-0-00-|-0000--0000--00-0-0-0-|
pm ....  ....  .. . . .    ....  ....  .. . . .    ....  ....  .. . . .    ....  ....
. . .

[Solo]
E|-----------------------|-----------------------------|
B|-----------------------|-----------------------------|
G|-10~~~\-12\-9~~~-7(6)*-|-7\-9\-10~~~\-12\-9~~~-7(6)*-| *Pre-bend 6th fret up a half and play around
D|-----------------------|-----------------------------|  with releasing the bend, etc.
A|-----------------------|-----------------------------|
D|-----------------------|-----------------------------|

E|--------------------------------------------------------------|
B|-------------------------------------13-----13-----13---------|
G|-12--10~~--14--12~~--12h14p12-11~~------11-----11-----11------|
D|---------------------------------------------------------12p0-|
A|--------------------------------------------------------------|
D|--------------------------------------------------------------|

E|----------------------------------------------------|
B|----------------------------------------------------|
G|-12--10~~--14--12~~--12h14p12-11~~----------11------|
D|------------------------------------10--------------|
A|---------------------------------------10p9---------|
D|-----------------------------------------------12p0-|

E|-----------------------------------|-----------------------------------------|
B|-----------------------------------|-----------------------------------------|
G|-----------------------------------|-----------------------------------------|
D|-----------------------------0~~~~-|---------------------------------0-------|
A|-----3--------------3----3h5-0~~~~-|-----3------------------3----3h5-0---x\\-|
D|-3h5---h5-3~~~~-3h5---h3-----0~~~~-|-3h5---h5-3~~/15~~\-3h5---h5-----0---x\\-|

E|------------------------|-------------------------|
B|------------------------|-------------------------|
G|------------------------|-------------------------|
D|------------------------|-------------------------|
A|------------------------|-------------------------|
D|-00-000-000-00000-00000-|-000-000-000-00000-00000-|
pm .. ... ... ..... .....   ... ... ... ..... .....

E|-------------------------|-------------------------|
B|-------------------------|-------------------------|
G|-------------------------|-------------------------|
D|-------------------------|-------------------------| 3x
A|-------------------------|-------------------------|
D|-000-000-000-00000-00000-|-000-000-000-00000-00000-|
   ... ... ... ..... .....   ... ... ... ..... .....

Same as above, but the time signature seems to change.
Played the same way, just make sure you listen to how it
lines up with the rest of the instruments.

E|-------------------------|-------------------------|
B|-------------------------|-------------------------|
G|-------------------------|-------------------------|
D|-------------------------|-------------------------| 8x
A|-------------------------|-------------------------|
D|-000-000-000-00000-00000-|-000-000-000-00000-00000-|
   ... ... ... ..... .....   ... ... ... ..... .....

E|----------------------------------------------------------|
B|----------------------------------------------------------|
G|----------------------------------------------------------|
D|----------------------------------------------------------| 2x
A|-0--7---3h5--3h5--3--5--5/7--0--7---3h5--3h5-3-3355223322-|
D|-0------3h5--3h5--3--5--5/7--0------3h5--3h5-3-3355223322-|
pm                                               ..........

E|-------------------------------------------------------|
B|-------------------------------------------------------|
G|----2---------------------------2----------------------|
D|-0----0-3h5--3h5--3--5--5/7--0----0-3h5--3h5-3--5--5/7-|
A|-------------------------------------------------------|
D|-------------------------------------------------------|

E|-------------------------------------------------------------|
B|-------------------------------------------------------------|
G|----2-----------------------------9----5/7--5/7-5-5577445544-|
D|-0----0-3h5--3h5--3--10-10h12--0--7--0-3/5--3/5-3-3355223322-|
A|-------------------------------------------------------------|
D|-------------------------------------------------------------|

E|-----------------------------|
B|-----------------------------|
G|-----------------------------|
D|-----------------------------| 8x
A|-------3------------3----3h5-|
D|-0-3h5---h5-3~~-3h5---h5-----|

[Intro]
E|-----------------------------------------|
B|-----------------------------------------|
G|-----------------------------------------|
D|-----------------------------------------| 4x
A|-----------------------------------------|
D|-3p2p0--0000-5p3p0-00-2p1p0-00-10p9p0-00-|
pm .      .... .     .. .     .. .      ..

E|--------------------------|
B|--------------------------|
G|--------------------------|
D|--------------------------| 4x
A|-----------------3----3h5-|
D|-00-000-000-00h3---h5-----|
pm .. ... ... .

[Outro]
E|------------------------|
B|------------------------|
G|------------------------|
D|------------------------|
A|----------------------0-|
D|-00-000-000-00000-00000-|
pm .. ... ... ..... ....



************************************

| p  Pull-off
| .  Staccato
| ~  Vibrato
| \  Slide down
| h  Hammer-on
| /  Slide up

************************************

            
            
Suggest correction
Creating personal tab
Creating personal tab
You can edit any tab online and save it as your Personal.

You can edit, replace or remove any tab part or add personal notes – all changes will be seen only by you.

Personal tabs can be accessed anytime from any device, even offline.
Learn more »
comments
print report bad tab
22 comments total. Showing first comments.
0 reply
UndueSchism 10 Jul 01, 2006 01:50 PM

great job

0 reply
taylorshidaker 110 Jul 03, 2006 09:01 AM

Impressive indeed

+3 reply
Offspringtabber 183 Aug 26, 2006 01:21 PM

great tab just so you all know the solo is done with a talkbox

guest
Wanna post a correction for this tab? Suggest correction