Oops, an error
Loading. Please wait.

Jerk Off bass

version 2
version 2

Whole song

Interactive

by Tool
3,668 views 1 this week
2 commentsread comments
1 2 3 4 5
x 4
add to favorites
×
Save as Personal and add changes to this tab that will be seen only by you. Learn more ›
×
You can save this tab as Personal to edit and correct it or add notes. All changes will be seen only by you. Learn more »
launch autoscroll
font size
0
reset
guitar tuner
edit
Autoscroll
slow
fast
+/-
esc
set tempo
stop
Song- Jerk-off (Live)
Album- Opiate
Band- Tool

Tunning- Drop D

This song was tabbed with the help of the actual song from the CD Opiate along with some 
footage. Enjoy

Intro              Riff 1                     (4x)
|-----9\0-----b12-|------------------------------|
|-----------------|------------------------------|
|-----------------|-----7---8--7---7---8-7-------|
|--7--------7-----|---7---7------7---7------8----|

Riff 2
|-----------------------------------|The beat of this part is a little
|-----------------------------------|hard to get at first because the
|-----------------------------------|drums cloud over it but its pretty easy
|-8-7-7-7-7-7-7-7-7-8-7-7-7-7-7-7-7-|

Riff 3                                         (4x)
|-------------------------------------------------|
|-------------------------------------------------|
|-------------------------------------------------|
|-12-0-0-12-0-12-0-12-/3-3-3----------------------|

Riff 4                       (4x)
|-------------------------------|As most people know Tool's bassist plays
|-------------------------------|with a pick so this is tremolo picked
|-------------------------------|
|--55555-55555-555/8888/333333--|

Riff 5                 (4x)
|-------------------------|
|-------------------------|
|-------------------------|
|-5-0-5-0-5-0-8-0-3-3-3-3-|
After Riff 5, start back at Riff 1 and go through it all over again then on the second 
around play the next Riffs below till the end of the song.

Riff 6
|--------------------------------|
|--------------------------------|
|------7---8---7----7----8--7----|
|---7----7-------7-----7------8--|

---------------------------------|
------2---3---2----2----3--2-----|
---------------------------------|
---2----2-------2-----2------4---|

---------------------------------|
------3---4---3----3----4--3-----|
---------------------------------|
---3----3-------3-----3------4---|

---------------------------------|
------2---3---2----2----3--2-----|
---------------------------------|
---2----2-------2-----2------4---|

---------------------------------|
------3---4---3----3----4--3-----|
---------------------------------|
---3----3-------3-----3------6---|

---------------------------------|
------5---6---5----5----6--5-----|
---------------------------------|
---5----5-------5-----5------6---|

---------------------------------|
------5---6---5----5----6--5-----|
---------------------------------|
---5----5-------5-----5------6---|

Riff 7                                (6X)
|--5--5-5-5-5-5-5-7-8-8-8-8-8-8-8-8-7----| On the 6th time around instead of
|--5--5-5-5-5-5-5-7-5-5-5-5-5-5-5-5-7----| strumming out the 6 5 8 cord just
|--3--3-3-3-3-3-3-5-6-6-6-6-6-6-6-6-5----| hold it then begin the next riff
|----------------------------------------|


Riff 8                 (3x)
|-------------------------|
|-------------------------|
|-------------------------|
|-5-0-5-0-5-0-8-0-3-3-3-3-|

Riff 9(during the guitar solo) (7x)
|----------------------------|
|----------------------------|
|----------------------------|
|-5--8--3--0--3/5-5/8--------|

Riff 10                (6x)
|-------------------------|--------------|
|-------------------------|--------------|
|-------------------------|--------------|
|-5-0-5-0-5-0-8-0-3-3-3-3-|-5-5-5-5-555--|
Suggest correction
Creating personal tab
Creating personal tab
You can edit any tab online and save it as your Personal.

You can edit, replace or remove any tab part or add personal notes – all changes will be seen only by you.

Personal tabs can be accessed anytime from any device, even offline.
Learn more »
comments
print report bad tab
2 comments total.
0 reply
tollett 10 Dec 07, 2007 08:49 AM

riff 9 starts on the low D then goes to the high D when the guitar starts in.

0 reply
Toolsh3d 31 Apr 03, 2008 08:00 PM

nice pick up I can't believe I missed that lol

guest
You may want to rate the tab now too:
select rating
Wanna post a correction for this tab? Suggest correction