Oops, an error
Loading. Please wait.

Jimmy bass

version 2
version 2

Whole song

Interactive

by Tool
8,967 views 21 this week
1 commentread comment
1 2 3 4 5
x 6
add to favorites
×
Save as Personal and add changes to this tab that will be seen only by you. Learn more ›
×
You can save this tab as Personal to edit and correct it or add notes. All changes will be seen only by you. Learn more »
launch autoscroll
font size
0
reset
guitar tuner
edit
Autoscroll
slow
fast
+/-
esc
set tempo
stop
----------------------------------------------------------------------
                             TOOL – Jimmy bass
-----------------------------------------------------------------------

Tabbed By : Ben Schreiber 
e-mail: tschreiber4@wi.rr.com  

Tuning: Dadg  Drop D

(0:10)
G|-------------------------------------------|x4
D|-------------------------------------------|
A|-----------------------------------------3-|
D|-0-10-12-0-12~-0-10-12-0-12~-0-10-12-0-1---|

(0:29)
G|-------------------------------------------------------------|x4
D|-0---------0---------0---------0---------0---------0-------3-|
A|-----------------------------3-------------------------------|
D|---0-0-5-3---0-0-3-5---0-0-1-----0-0-5-3---0-0-3-5---0-0-1---|

(1:07)
G|-----------------|x6
D|-----------------|
A|-----------------|
D|-0-10-12-0-12-13-|

(1:16)
G|-----|x4
D|-----|
A|-5-5-|
D|-0-0-|

(1:19)
G|-------------------------------------------------------------|x2
D|-0---------0---------0---------0---------0---------0-------3-|
A|-----------------------------3-------------------------------|
D|---0-0-5-3---0-0-3-5---0-0-1-----0-0-5-3---0-0-3-5---0-0-1---|

(1:37)
G|----------------|x4
D|-0--------------|
A|--------10------|
D|---0/10----8-10-|

(1:52)
G|-------------------------------------------|x4
D|-------------------------------------------|
A|-----------------------------------------3-|
D|-0-10-12-0-12~-0-10-12-0-12~-0-10-12-0-1---|

(2:07)
G|--------------------------------|
D|--------------------------------|
A|-5-5--5----5-5--5---5-5--5------|
D|-0-0--0----0-0—-0---0-0--0-1-10-|

(2:11)
G|----------------|x4
D|-0--------------|
A|--------10------|
D|---0/10----8-10-|

(2:26)
G|--------------------|x3
D|--------------------|
A|---------10---------|
D|-12-7-10----0-8-7-5-|

(2:37)
G|---------|
D|---------|
A|---------|
D|-12-7-10-|

(2:41)
Distortion on
G|----------------------------------|
D|----------------------------------|
A|----------------------------------|
D|-0-0—10-12-12-0-10-12-0-5-7-0-----|

G|-------------------------------|
D|-------------------------------|
A|-------------------------------|
D|-10-12-12-0-10-12-0-7/5-0-0----|

G|--------------------------|
D|--------------------------|
A|--------------------------|
D|-10-12-12-0-10-12-0-5-7-0-|

G|-----------------------|
D|-----------------------|
A|-----------------------|
D|-10-12-12-0-10-12-0-7/-|

(2:52)
Distortion off
G|-----------------|x8
D|-0-15-12-0-12b13-|
A|-----------------|
D|-----------------|

(3:04)
G|---------------|x8
D|---------------|
A|---------------|
D|-0-10-12-0-5-7-|

(3:15)
G|-----------------|x8
D|-0-15-12-0-12b13-|
A|-----------------|
D|-----------------|

(3:27)
G|---------------|x6
D|---------------|
A|---------------|
D|-0-10-12-0-5-7-|

G|--------------|
D|--------------|
A|--------------|
D|-0-15-12-0-7/-|



(3:38)
G|-------------------------------------|x4
D|-------------------------------------|
A|-------------------------------------|
D|-12-0-0-0-3-12-0-0-0-5-12-0-0-0-1-10-|

(3:57)
G|----10-10-10---8-8---5-5---7-7-|
D|-12----------6-----3-----5-----|
A|-------------------------------|
D|-------------------------------|

G|----10-10-10---8-8---5-5---10-|
D|-12----------6-----3-----8----|
A|------------------------------|
D|------------------------------|

G|----10-10-10---8-8---5-5---7-7-|
D|-12----------6-----3-----5-----|
A|-------------------------------|
D|-------------------------------|

G|----10-10-10---8-8---5-5---10-10-10-|
D|-12----------6-----3-----8----------|
A|------------------------------------|
D|------------------------------------|

(4:20)
G|-------------------------|x3
D|-------------------------|
A|----8-8-10-11-3b-3-------|
D|-12----------------0-1-0-|

G|-------------------|
D|-------------------|
A|----8-8-10---------|
D|-12--------6-8-10b-|

(4:44)
G|-------------------------------------|x4
D|-------------------------------------|
A|-------------------------------------|
D|-12-0-0-0-3-12-0-0-0-5-12-0-0-0-1/10-|


| /  slide up
| \  slide down
| h  hammer-on
| p  pull-off
| ~  vibrato
| +  harmonic
| x  Mute note
=======================================================================

            
            
Suggest correction
Creating personal tab
Creating personal tab
You can edit any tab online and save it as your Personal.

You can edit, replace or remove any tab part or add personal notes – all changes will be seen only by you.

Personal tabs can be accessed anytime from any device, even offline.
Learn more »
comments
print report bad tab
1 comment total.
+2 reply
xmari3nx 31 May 29, 2008 11:38 AM

great tab!

guest
You may want to rate the tab now too:
select rating
Wanna post a correction for this tab? Suggest correction