Oops, an error
Loading. Please wait.

Lateralus album tab

version 2
version 2
by Tool
97,541 views 66 this week
5 commentsread comments
1 2 3 4 5
x 27
add to favorites
×
Save as Personal and add changes to this tab that will be seen only by you. Learn more ›
×
You can save this tab as Personal to edit and correct it or add notes. All changes will be seen only by you. Learn more »
launch autoscroll
font size
0
reset
how to read this tab
guitar tuner
backing track
0:00
0:00
edit
Autoscroll
slow
fast
+/-
esc
set tempo
stop
                            Tool
                          Lateralus Album
                            Tabs

01 The Grudge
02 Eon Blue Apocalypse
03 The Patient
04 -
05 Schism
06 Parabol
07 Parabola
08 Ticks & Leeches
09 Lateralus
10 Disposition
11 Reflection
12 Triad



01 The Grudge


Tuning: drop D


Legend

nh - natural harmonic
 ph - pinch harmonic

pm - palm mute
 x - muted string

h - hammer on
 p - pull off

// - slide down
 \\ - slide up

b - bend
 ~~ - vibrato

<7> - natural harmonic
 x/// - pick scrape (directions same as slide)

*startup noise*

(distortion)

0:08              x8   0:20            x8  0:32           x18
e--------------------|-------------------|--------------------|
b--------------------|-------------------|--------------------|
g--------------------|-------------------|--------------------|
d--------------------|-------------------|--------------------|
a--------------------|--------5----------|--------------------|
d--0h1p0-0--0h1p0-0--|--0h1p0---0h1p0-3--|--0h1p0-0--0h1p0-0--|
  pm - - - - - - - |                       pm - - - - - - - |

 1:00
 "where the grudge..."
e-----------------------|
b-----------------------|
g-----------------------|
d-----------------------|
a-----------------------| x4
d--0-0-0-00--00-0--0-0--|
  pm - - - - - - - - |

 1:14
e---------------------------------|
b--3--3--3--3--3--3--3--3--15-15--|
g--2--2--2--2--2--2--2--2--14-14--|
d--0--0--0--0--0--0--0--0--0--0---|
a--0--0--0--0--0--0--0--0--0--0---|
d--0--0--0--0--0--0--0--0--0--0---|

*rest*

(Note: the wah part is actually Adam playing his synth with his foot.
       I have, however, written the synth part for wah here so anyone
       can make the similar sound to be a bit authentic)

 1:33               x3
e----------------w/wah-|----------------w/wah----|
b------------------3---|------------------3------|
g------------------2---|------------------2------|
d------------------0---|------------------0------|
a------------------0---|------------------0------|
d--0--0-0-00--00-0-0---|--0--0-0-00--00-0-0-0-0--|
  pm- - - - - - -|

 1:46                       2:11
 "clutch it like..."    x8  "saturn ascends.." x8
e-------------------------|-----------------------|
b-------------------------|-----------------------|
g-------------------------|-----------------------|
d--0--0-000-0--00-0--000--|--0--0-0-00--00-0--00--|
a--0--0-000-0--00-0--000--|--0--0-0-00--00-0--00--|
d--0--0-000-0--00-0--000--|--0--0-0-00--00-0--00--|
  pm - - - - - - - - - -|   pm - - - - - - - - |

 2:22
 "again..."
e----------------------------------------------------------------------------|
b----------------------------------------------------------------------------|
g----------------------------------------------------------------------------|
d----------------------------------------------------------------------------|
a------------12-------------12-10-------------12-------------12-10-///--5-b--|
d--12h13p12-------12h13p12----------12h13p12-------12h13p12------------------|


 2:40                2:53
 "clutch it..." x4   "saturn..."  x4
e-----------------|-----------------|
b-----------------|-----------------|
g-----10--5-------|--7--10--5-------|
d--0--8---3--3h5--|--5--8---3--3h5--|
a--0--8---3--3h5--|--5--8---3--3h5--|
d--0---------3h5--|------------3h5--|

 3:04
 "saturn ascends..."
e-------------------------------|
b-------------------------------|
g------5--7--8--7---5--7--8--7--|
d--0---3--5--6--5---3--5--6--5--|
a--0---3--5--6--5---3--5--6--5--|
d--0----------------------------|

e---------------------------------------|
b---------------------------------------|
g--5----------------------5--7--8--5----|
d--3----------------------3--5--6--3----|
a--3--5h6p5-3h5p3-5h6p5---3--5--6--3----|
d---------------------------------------|

 3:18                     3:30
 "done..."           x8   "wear the grudge..."  x4
e-----------------------|--------------------------|
b-----------------------|--------------------------|
g-----------------------|--------------------------|
d--0--0-0-00--00-0--00--|----------0-00--00-0--00--|
a--0--0-0-00--00-0--00--|--3-----5-0-00--00-0--00--|
d--0--0-0-00--00-0--00--|----5p0---0-00--00-0--00--|

 3:42
 "wear the grudge..."
e----------------------------------------------------------------------------|
b----------------------------------------------------------------------------|
g----------------------------------------------------------------------------|
d----------0-00------10-10---------0-00------5-5---------0-00-----8-8---3-3--|
a--3-----5-0-00------10-10-3-----5-0-00------5-5-3-----5-0-00-----8-8---3-3--|
d----5p0---0-00------10-10---5p0---0-00------5-5---5p0---0-00-----8-8---3-3--|

e----------------------------------------------------------------------------|
b----------------------------------------------------------------------------|
g----------------------------------------------------------------------------|
d----------0-00--x-x-10-10---------0-00----x-5-5---------0-00---x-8-8---3-3--|
a--3-----5-0-00--x-x-10-10-3-----5-0-00----x-5-5-3-----5-0-00---x-8-8---3-3--|
d----5p0---0-00--x-x-10-10---5p0---0-00----x-5-5---5p0---0-00---x-8-8---3-3--|

e----------------------------------------------------------------------------|
b----------------------------------------------------------------------------|
g----------------------------------------------------------------------------|
d----------0-00--x-x-10-10---------0-00-xxxx-5-5---------0-00---x-8-8---3-3--|
a--3-----5-0-00--x-x-10-10-3-----5-0-00-xxxx-5-5-3-----5-0-00---x-8-8---3-3--|
d----5p0---0-00--x-x-10-10---5p0---0-00-xxxx-5-5---5p0---0-00---x-8-8---3-3--|

 4:13
(with flange)                                         x3
e-----------------------------|--------------------------|
b-----------------------------|--------------------------|
g-----------------------------|--------------------------|
d--0--0--0--0--3--5-----------|--0--0--0--3--5-----------|
a--0--0--0--0--3--5--3-----5--|--0--0--0--3--5--3-----5--|
d--0--0--0--0--3--5----5p0----|--0--0--0--3--5----5p0----|

 4:25
 "saturn comes..."
e--------------------------|
b--------------------------|
g--------------------------|
d----------0-00--00-0--00--|
a--3-----5-0-00--00-0--00--| x4
d----5p0---0-00--00-0--00--|

e---------------------------------------------------------------------------------|
b---------------------------------------------------------------------------------|
g---------------------------------------------------------------------------------|
d-----------0-00--x-x-10-10---------0-00----x-5-5---------0-00---x-8-8h10p8--3-3--|
a--3------5-0-00--x-x-10-10-3-----5-0-00----x-5-5-3-----5-0-00---x-8-8-------3-3--|
d----5p0----0-00--x-x-10-10---5p0---0-00----x-5-5---5p0---0-00---x-8-8-------3-3--|

 4:48                       5:09
 "choose to..."             "go..."
e-------------------------|------------------------------------|
b-------------------------|------------------------------------|
g-------------------------|------------------------------------|
d--0--hold-and-feedback---|------------------------------------|
a--0----------------------|------------------------------------|
d--0----------------------|--12--12-12--12-12-10--12-10-10-12--|

 5:12       x4   5:24                          x4
e--------------|----------------------------------|
b--2--(w/wah---|----------------------------------|
g--3---and-----|----------------------------------|
d--0--flange)--|----------------------------------|
a--0-----------|----------------------------------|
d--0-----------|--0--10--5--3h5---0--10--12--3h5--|

 5:36
e--------------------------------------------------------------------|
b--------------------------------------------------------------------|
g--------------------------------------------------------------------|
d--------------------------------------------------------------------|
a--///6--5----3h5--6--5--8----3h5--6--5--5~~----3h5--6--5--8----3h5--|
d--------------------------------------------------------------------|

 5:48            6:01
            x4   "give away the stone..."      x4
e--------------|----------------------------------|
b--2--(w/wah---|----------------------------------|
g--3---and-----|----------------------------------|
d--0--flange)--|----------------------------------|
a--0-----------|----------------------------------|
d--0-----------|--0--10--5--3h5---0--10--12--3h5--|

 6:25  x8  6:30            x8   6:43           x8
e--------|--------------------|-------------------|
b--------|--------------------|-------------------|
g--------|--------------------|-------------------|
d--0-----|--------------------|-------------------|
a--0-----|--------------------|--------5----------|
d--0-----|--0h1p0-0--0h1p0-0--|--0h1p0---0h1p0-3--|
          pm - - - - - - - |

*volume off, hit open D5 chord and turn volume up slowly over two bars*

  6:58              x3
e----------------------|--------------------------|
b----------------------|--------------------------|
g---------7------------|---------7----------------|
d--0h1p0--5--0h1p0--3--|--0h1p0--5--0h1p0--3p0-3--| (x4)
a--0h1p0--5--0h1p0--3--|--0h1p0--5--0h1p0--3p0-3--|
d--0h1p0-----0h1p0--3--|--0h1p0-----0h1p0--3p0-3--|

  7:24       x16   7:48
e----------------|-----------------------------------|
b----------------|-----------------------------------|
g----------------|-----------------------------------|
d--0-0-0-00--0---|--12----10---15-----12----10---15--|
a--0-0-0-00--0---|-----------------------------------|
d--0-0-0-00--0---|-----------------------------------|
  pm - - - - -|

 8:00
e---------------------------------------------------------------------------------|
b---------------------------------------------------------------------------------|
g---------------------------------------------------------------------------------|
d--12--12-12-12--12-13-12--12-12-13-12--10--10-10-10--10-10--15--15-15-15--15-15--|
a--12--12-12-12--12-13-12--12-12-13-12--10--10-10-10--10-10--15--15-15-15--15-15--|
d--12--12-12-12--12-13-12--12-12-13-12--10--10-10-10--10-10--15--15-15-15--15-15--|

e---------------------------------------------------|
b---------------------------------------------------|
g---------------------------------------------------|
d--0--0-0-0--0-1--0--0-0-1-0--5--5-5-5--5-0-3-------|
a--0--0-0-0--0-1--0--0-0-1-0--5--5-5-5--5-0-3-------|
d--0--0-0-0--0-1--0--0-0-1-0--5--5-5-5--5-0-3-------|

  8:13          x8   8:25   x8
e------------------|-----------|
b------------------|-----------|
g------------------|-----------|
d--0h1p0-0-0h1p0-0-|--0-0-0-0--|
a--0h1p0-0-0h1p0-0-|--0-0-0-0--|
d--0h1p0-0-0h1p0-0-|--0-0-0-0--|



02 Eon Blue Apocalypse

Tuning: drop D

Legend

nh - natural harmonic
 ph - pinch harmonic

pm - palm mute
 x - muted string

h - hammer on
 p - pull off

// - slide down
 \\ - slide up

b - bend
 ~~ - vibrato

<7> - natural harmonic
 x/// - pick scrape (directions same as slide)

e-----------------------------------------------------------------------|
b-----------------------------------------------------------------------|
g-----------------------------------------------------------------------|
d--0--(tremolo picking, keeps going till 40 seconds in)-----------------|
a-----------------------------------------------------------------------|
d--------h10-h12---h10-h12--h3-h5----h15--h10-h12---h10-h12--h3-h5--p0--|

*tremolo picking on open D ends*

(guitar part, at 43 seconds,with delay)
e----------------------------------------------------------------------------|
b-------------------------------------------------------------------------3--|
g------------------------------------------------------------------------2---|
d---8p7-7---3/5-5/7-3----8p7-7---3/5-5\7-5----5--------5----------------0----|
a-------------------------------------------6---6-5--6---6-5--6-----5--0-----|
d----------------------0----------------------------------------8-7----------|




03 The Patient

Tuning: drop D


Legend

nh - natural harmonic
 ph - pinch harmonic

pm - palm mute
 x - muted string

h - hammer on
 p - pull off

// - slide down
 \\ - slide up

b - bend
 ~~ - vibrato

<7> - natural harmonic
 x/// - pick scrape (directions same as slide)

(clean, delay)
e------------------------|
b------------------------|
g------------------------|
d----0-2---0-2----2---2--| x20
a---------------3---0----|
d--3-----0---------------|
  pm - - - - - - - - - |

e------------|
b------------|
g------------|
d------------|  x7
a-0-3-5-0-7--|
d------------|
  pm- - - -|

e------------|
b------------|
g------------|
d---------2--|
a-0-3-5-0----|
d------------|
  pm- |

e------------------------|
b------------------------|
g------------------------|
d----0-2---0-2----2---2--| x8
a---------------3---0----|
d--3-----0---------------|
  pm - - - - - - - - -|

1:30
==========
(guitar 1, left channel)
                      x4          x15
e------------------------|------------|------------|
b------------------------|------------|------------|
g------------------------|------------|------------|
d----0-2---0-2----2---2--|------------|---------2--|
a---------------3---0----|-0-3-5-0-7--|-0-3-5-0----|
d--3-----0---------------|------------|------------|
   pm - - - - - - - - -|    pm- - - -|   pm- |

(guitar 2, right channel)
                      x4   **       x8
e------------------------|-------------|-------------------|
b------------------------|-------------|-------------------|
g------------------------|-------------|-------------------|
d----7-9---7-9----9---9--|----5-7---9--|----5-7---9---5-7--|
a-------------------0----|--0-----0----|--0-----0---0------|
d--3-----0-----10--------|-------------|-------------------|
  pm - - - - - - - - -|     pm - - -|    pm - - - - - - -|

 (g2, continued)    x2                  x3
e----------------------|-------------------|-------------------|
b----------------------|-------------------|-------------------|
g----------------------|-------------------|-------------------|
d---9-7-5-7---9---5-7--|----5-7---9---5-7--|---9-7---9-7----2--|
a-0---------0---0------|--0-----0---0------|-0-----0------0----|
d----------------------|-------------------|-------------------|
  pm - - - - - - - -|    pm - - - - - - -|   pm - - - -|

  ** this is what Adam plays live, he plays the first 4 bars of guitar 1
     then finishes with the guitar 2 part... so this is my suggestion
     for playing this part for one guitar.
==========

(distortion)

*feedback*

2:21
e-------------------------|
b-------------------------|
g-------------------------|
d--3--0--5--7----5-7-5-0--| x3
a--3--0--5--7----5-7-5-0--|
d--3--0--5--7----5-7-5-0--|
                pm- - - |

e-----------------------------|
b-----------------------------|
g-----------------------------|
d--3--0--5--7-----------------|
a--3--0--5--7---7-7-7-7-7-7---|
d--3--0--5--7-----------------|
                ph - - - -|

2:43
e-------------------------------------------------------------|
b-------------------------------------------------------------|
g-------------------------------------------------------------|
d-----10---------------10---------10---------------10---------| x3
a--12----10-12~--10-12----10-12~-----10-12~--10-12----10-12~--|
d-------------------------------------------------------------|

e---------------------------------------------|
b---------------------------------------------|
g---------------------------------------------|
d-----10---------------10----------10---------|
a--12----10-12~--10-12----10-12~------10-12b--|
d---------------------------------------------|

3:03
==========
(guitar 1, left channel)
                                       x7
e---------------|-------------------------|---------------|
b---------------|-------------------------|---------------|
g---------------|-------------------------|---------------|
d---------------|----10-------------------|-----10--------|
a--13-12-10-12--|-12----10-12-13-12-1012--|--12----10-12--|
d---------------|-------------------------|---------------|
|               |                         |
|(guitar 2, right channel)  x7            |
e---------------|-------------------------|---------------|
b---------------|-------------------------|---------------|
g---------------|-------------------------|---------------|
d---------------|----10-------------------|-----10--------|
a--13-12-10-12--|-12----10-12-13-12-1012--|--12----10-12--|
d---------------|-------------------------|---------------|
                  ph - - - - - - - - - - - - - - - - - |
==========

e-------------------|
b-------------------|
g-------------------|
d--7-10-5-7--7-5h7--| x4
a-------------------|
d-------------------|

e-------------------|
b-------------------|
g-------------------|
d--7-10-5-7--7-5-7--| x3
a--7-10-5-7--7-5-7--|
d--7-10-5-7--7-5-7--|

e---------------------|
b--9-13-8-10-10-8-10--|
g--8-12-7-9--9--7-9---|
d--7-10-5-7--7--5-7---|
a--7-10-5-7--7--5-7---|
d--7-10-5-7--7--5-7---|

e------------|
b------------|
g------------|
d------------| x16
a-0-3-5-0-7--|
d------------|

e------------|
b------------|
g------------|
d------------| x8
a-0-3-5-0-7--|
d------------|
  pm- - - -|

e------------------|
b------------------|
g------------------|
d------------------|
a-5-3-5-0-7-0-3-5--|
d------------------|
  pm- - - - - - -|

e----------------------|
b----------------------|
g----------------------|
d----------------------| x3
a-0-7-5-3-5-0-7-0-3-5--|
d----------------------|
  pm- - - - - - - - -|

e------------------------------------------------|
b------------------------------------------------|
g--------*bass part tabbed for guitar*-----------|
d----2-------------------------------------------|
a--0-----7--5------------------------------------|
d--------------5--7--9--5--7--9--5--7--9--5--7---|
  pm -|  nh - - - - - - - - - - - - - - - - - |

                         x7
e--------------|------------|
b--------------|------------|
g--------------|------------|
d--0--3--5--7--|--0-3-5--7--|
a--0--3--5--7--|--0-3-5--7--|
d--0--3--5--7--|--0-3-5--7--|
                  pm-

e-----------------|
b-----------------|
g-----------------|
d--3-0-1-0-0-2-3--|
a--3-0-1-0-0-2-3--|
d--3-0-1-0-0-2-3--|
  pm - - - - - -|

e-----------------------|
b-----------------------|
g-----------------------|
d--0-1-0-3-0-1-0-0-2-3--| x3
a--0-1-0-3-0-1-0-0-2-3--|
d--0-1-0-3-0-1-0-0-2-3--|
  pm - - - - - - - - -|

e--------------------------|
b--------------------------|
g--------------------------|
d--0-1-0---3-00-0---2-3----| x4
a--0-1-0---3-00-0---2-3----|
d--0-1-0---3-00-0---2-3----|
  pm - -|    pm    pm -|

e-------------|
b-------------|
g-------------|
d--0-1-0-5-7--|
a--0-1-0-5-7--|
d--0-1-0-5-7--|
   pm - - -|

****************
(guitar 1, left channel)
             x3                              x2
e---------------|---------------|---------------|--------------------|
b---------------|---------------|---------------|--------------------|
g---------------|---------------|---------------|--------------------|
d--5h7---5-7-7--|--5h7---5-7-7--|--5h7---5-7-7--|--5h7-5h7-7-7--5-7--|
a--5h7---5-7-7--|--5h7---5-7-7--|--5h7---5-7-7--|--5h7-5h7-7-7--5-7--|
d--5h7---5-7-7--|--5h7---5-7-7--|--5h7---5-7-7--|--5h7-5h7-7-7--5-7--|
         pm -|           pm -|           pm -|             pm- - - |

(guitar 2, right channel)
             x3                               x2
e---------------|---------------|---------------|--------------------|
b---------------|---------------|---------------|--------------------|
g---------------|---------------|---------------|--------------------|
d--5h7---5-7-7--|-5h7-5h7-7-5-7-|--5h7---7-5-7--|--5h7-----7-7--5-7--|
a--5h7---5-7-7--|-5h7-5h7-7-5-7-|--5h7---7-5-7--|--5h7-----7-7-------|
d--5h7---5-7-7--|-5h7-5h7-7-5-7-|--5h7---7-5-7--|--5h7-----7-7-------|
         pm -|            pm -|          pm -|             pm-| ph-|
****************

e---------------------|
b---------------------|
g---------------------|
d------------5h7------|
a------555h7-----5h7--|
d--5h7----------------|
   ph - - - - - - -|

e---------------------|
b---------------------|
g---------------------|
d-----------5h7-------| x3
a-------5h7-----5h7---|
d--5h7----------------|
   ph - - - - - - -|

e-----------------------|
b-----------------------|
g------4-5-4---4--------|
d----2-------2---2-5-2--| x4
a--0--------------------|
d-----------------------|

e--------------------------------|
b--------------------------------|
g-------16-17-16----16-----------|
d----14----------14----14-17-14--| x3
a--0-----------------------------|
d--------------------------------|

e--------------------------------|
b--------------------------------|
g-------16-17-16-14-16-14-12-----|
d----14--------------------------|
a--0-----------------------------|
d--------------------------------|

e---------------------------------------|
b--10-10-10-10--10-8-8--3-3-3-3--3-6-6--|
g--9--9--9--9---9--7-7--2-2-2-2--2-5-5--|
d--7--7--7--7---7--5-5--0-0-0-0--0-3-3--| x4
a--7--7--7--7---7--5-5--0-0-0-0--0-3-3--|
d--7--7--7--7---7--5-5--0-0-0-0--0-3-3--|

(last note with strong delay)

*pause*

(clean, delay)

e------------------------|
b------------------------|
g------------------------|
d----0-2---0-2----2---2--| x4
a---------------3---0----|
d--3-----0---------------|
  pm - - - - - - - - - |

e------------------------|
b------------------------|
g------------------------|
d----0-2---0-2----2---2--|
a---------------3---0----|
d--------0---------------|
  pm - - - - - - - - - |

e------------------------|
b------------------------|
g------------------------|
d----0-2---0-2----2---2--|
a---------------3---0----|
d--3-----0---------------|
  pm - - - - - - - - - |

e------------------|
b------------------|
g------------------|
d----0-2----0---2--|
a------------------|
d--3-----0---------|
  pm - - |




04 -



05 Schism

Tuning: drop D


Legend

nh - natural harmonic
 ph - pinch harmonic

pm - palm mute
 x - muted string

h - hammer on
 p - pull off

// - slide down
 \\ - slide up

b - bend
 ~~ - vibrato

<7> - natural harmonic
 x/// - pick scrape (directions same as slide)


(clean)

*this may just be bass on the recording, but live Adam (sometimes) plays
 the bass chords along with Justin*

e---------------------------|
b---------------------------|
g--3--2--5--7---3--2--5--7--|
d--0--3--5--8---0--3--5--7--|
a---------------------------|
d---------------------------|

*rest for 4 bars*

(distortion)

*volume off*
*hit open D5 chord*
*raise volume slowly*
*slight feedback over bass*

e----------------------------------|
b----------------------------------|
g-------3---2---------3---2---5----| x4
d-0h3h5---0---0-0h3h5---0---0---0--|
a----------------------------------|
d----------------------------------|
  pm - - - - - - - - - - - - - - |

e--------------------------------------------------|
b--------------------------------------8-----10----|
g--7-----------------7-------------------7------7--|
d--0-(hold,4 bars)-----(hold,2 bars)---------------|
a--------------------------------------------------|
d--------------------------------------------------|

e-----------------------------------------|
b-----------------------------------------|
g-----------------------------------------|
d---------10---9-----------10---9---12----| x4
a-0h10h12----0---0-0h10h12----0---0----0--|
d-----------------------------------------|
  pm - - - - - - - - - - - - - - - - - -|

e-----------------------------------------|
b-----------------------------------------|
g-----------------------------------------|
d---------10---9-----------10---9---12----| x4
a-0h10h12----0---0-0h10h12----0---0----0--|
d-----------------------------------------|

e-----------------------------------------------------------------------------------|
b-----------------------------------------------------------------------------------|
g-----------------------------------------------------------------------------------|
d----------10---9------------10---9---12-------------9---7------------9---7---10----| x4
a--0h10h12----0---0--0h10h12-----0---0---0---0h10h12---0---0--0h10h12---0---0----0--|
d-----------------------------------------------------------------------------------|
  pm - - - - - - - - - - - - - - - - - - - - - - - - - - - - - - - - - - - - - - -|

e-----------------------------------------|
b-----------------------------------------|
g-----------------------------------------|
d---------10---9-----------10---9---12----| x3
a-0h10h12----0---0-0h10h12----0---0----0--|
d-----------------------------------------|

e-------------------------------------------|
b-------------------------------------------|
g-------------------------------------------|
d---------10---9-----------10---9---12(ph)--|
a-0h10h12----0---0-0h10h12----0---0---------|
d-------------------------------------------|

e-----------------------------|
b-----------------------------|
g-----------------------------|
d--0--3--5-3--3--5-5----------| x3
a--0--3--5-3--3--5-5-------3--|
d--0--3--5-3--3--5-5-0h3h5----|

e------------------------------|
b------------------------------|
g------------------------------|
d--0--3-3h5-3--3--5-5----------|
a--0--3-3h5-3--3--5-5-------3--|
d--0--3-3h5-3--3--5-5-0h3h5----|

*pause*

(guitar 1)
e------------|
b--8---------|
g--7---------|
d--5---------|
a------------|
d------------|

(guitar 2)
e-----------------------------------------------------------------------------------|
b-----------------------------------------------------------------------------------|
g-----------------------------------------------------------------------------------|
d----------10---9------------10---9---12-------------9---7------------9---7---10----| x4
a--0h10h12----0---0--0h10h12-----0---0---0---0h10h12---0---0--0h10h12---0---0----0--|
d-----------------------------------------------------------------------------------|
  pm - - - - - - - - - - - - - - - - - - - - - - - - - - - - - - - - - - - - - - -|

e-----------------------------------------|
b-----------------------------------------|
g-----------------------------------------|
d---------10---9-----------10---9---12----| x4
a-0h10h12----0---0-0h10h12----0---0----0--|
d-----------------------------------------|

e-------------------------|
b-------------------------|
g-------------------------|
d----------10---9---12----| x7
a--0h10h12----0---0----0--|
d-------------------------|

e-------------------------|
b-------------------------|
g-------------------------|
d----------10---9---------|
a--0h10h12----0---0-------|
d-------------------------|

e-------------------------------------------------------------------|
b-------------------------------------------------------------------|
g-------------------------------------------------------------------|
d--14-----17-----14-----19-----12-----14-----10-----12-----10---12--| x7
a--0--0-0-0--0-0-0--0-0-0--0-0-0--0-0-0--0-0-0--0-0-0--0-0-0--0-0---|
d-------------------------------------------------------------------|

e----------------------------------------------------------------------|
b----------------------------------------------------------------------|
g----------------------------------------------------------------------|
d--14-----17-----14-----19-----12-----12h14p12--10h12p10--12---10--12--|
a--0--0-0-0--0-0-0--0-0-0--0-0-0--0-0-0---------0---------0--0-0-0-0---|
d----------------------------------------------------------------------|

e-------------------------------------------------------------------|
b-------------------------------------------------------------------|
g-------------------------------------------------------------------|
d--14-----17-----14-----19-----12-----14-----10-----12-----10---12--| x3
a--0--0-0-0--0-0-0--0-0-0--0-0-0--0-0-0--0-0-0--0-0-0--0-0-0--0-0---|
d-------------------------------------------------------------------|

e----------------------------------------------------------------------|
b----------------------------------------------------------------------|
g----------------------------------------------------------------------|
d--14-----17-----14-----19-----12-----12h14p12--10h12p10--12---10--12--|
a--0--0-0-0--0-0-0--0-0-0--0-0-0--0-0-0---------0---------0--0-0-0-0---|
d----------------------------------------------------------------------|

e-------------------------------------------|
b-------------------------------------------|
g-------------------------------------------|
d--14-----17-----14-----17-----14---14------|
a--0--0-0-0--0-0-0--0-0-0--0-0-0--0-0--0-0--|
d-------------------------------------------|

e----------------------------------------------------------|
b----------------------------------------------------------|
g----------------------------------------------------------|
d--14-----17-----14-----17-----14---14-----------10---9----|
a--0--0-0-0--0-0-0--0-0-0--0-0-0--0-0----0h10h12----0---0--|
d----------------------------------------------------------|

e-------------------------------------------|
b-------------------------------------------|
g-------------------------------------------|
d--14-----17-----14-----17-----14---14------| x2
a--0--0-0-0--0-0-0--0-0-0--0-0-0--0-0--0-0--|
d-------------------------------------------|

e----------------------------------------------------------------|
b----------------------------------------------------------------|
g--10-10--5-5--12-12---------------------------------------------|
d--10-10--5-5--12-12--------14-----17-----14-----17-----14---14--| x2
a--8--8---3-3--10-10--0-0-0-0--0-0-0--0-0-0--0-0-0--0-0-0--0-0---|
d----------------------------------------------------------------|

e-----------------------|
b-----------------------|
g--10-10--5-5--12-12----|
d--10-10--5-5--12-12----|
a--8--8---3-3--10-10----|
d-----------------------|

e-------------------------------------------------|
b-------------------------------------------------|
g-------------------------------------------------|
d--0--12b--12-13-12-13-13-12-12-10-8--5-3--10-10--|
a--0--12b--12-13-12-13-13-12-12-8--8--3-3--10-10--|
d--0--12b--12-13-12-13-13-12-12-8--8--3-3--10-10--|

                            x3
e------------------------------|----------------------|
b------------------------------|----------------------|
g------------------------------|----------------------|
d------------------------------|----------------------|
a------5----5-----------3-/10--|------5----5----------|
d--0-0----7---7-5-7-0-3---/10--|--0-0----7---7-5-7-0--|

                         x4                               x4
e---------------------------|--------------------------------|
b---------------------------|--------------------------------|
g---------------------------|--------------------------------|
d--3-0-2-0-0-3-0-2-0-5-0-0--|--000-3-000-2-000-3-000-2-00-5--|
a--3-0-2-0-0-3-0-2-0-5-0-0--|--000-3-000-2-000-3-000-2-00-5--|
d--3-0-2-0-0-3-0-2-0-5-0-0--|--000-3-000-2-000-3-000-2-00-5--|
  pm - - - - - - - - - - -|    pm-   pm-   pm-   pm-

e-------------------------------|
b-------------------------------|
g-------------------------------|
d-------------------------------| x8
a----------5---------6-5h6p5-3--|
d--0-0h3h5---0-0h3h5------------|
     pm -|     pm -|




06 Parabol

Tuning: drop B/E


Legend

nh - natural harmonic
 ph - pinch harmonic

pm - palm mute
 x - muted string

h - hammer on
 p - pull off

// - slide down
 \\ - slide up

b - bend
 ~~ - vibrato

<7> - natural harmonic
 x/// - pick scrape (directions same as slide)

(clean w/chorus, slight delay)
e---------------------------------|
b---------------------------------|
g---------------------------------|
d--0h2---7h9-----0h2---7h9p7------| x15
e--0-----0-------0-----0----------|
b---------------------------------|

*pause*

(distorion)

*feedback*



07 Parabola

Tuning: drop B/E


Legend

nh - natural harmonic
 ph - pinch harmonic

pm - palm mute
 x - muted string

h - hammer on
 p - pull off

// - slide down
 \\ - slide up

b - bend
 ~~ - vibrato

<7> - natural harmonic
 x/// - pick scrape (directions same as slide)


(distorion)

e-----------------|
b-----------------|
g-----------------|
d--0h2-3p2--------| x4
e--0-------3p0----|
b--------------3--|

e--------------------------------------------------|
b--------------------------------------------------|
g--(wah closed)-----------(wah open)---------------|
d--12h14-14-14-14-14-14---19h21-21-21-21-21-21b----|
e--------------------------------------------------|
b--------------------------------------------------|

e--------------------------------------|
b--------------------------------------|
g--(wah closed)-----------(wah open)---|
d--12h14-14-14-14-14-14---19h21-21b----|
e--------------------------------------|
b--------------------------------------|

*rest for 4 bars*

e--------------------------------------------------|
b--------------------------------------------------|
g--------------------------------------------------|
d--xx---------xx---------xx---------xx--xx---xx-xx-|
e--xx-(1 bar)-xx-(1 bar)-xx-(1 bar)-xx--xx---xx-xx-|
b--xx---------xx---------xx---------xx--xx---xx-xx-|

e------------------------------------------------|
b------------------------------------------------|
g------------------------------------------------|
d------------------------------------------------|
e--10--10-10/12--12-12--5/7--7--7-7--7--7-7--5---|
b--8---8--8-/10--10-10--3/5--5--5-5--5--5-5--3---|

e---------------------------------------------------------|
b---------------------------------------------------------|
g---------------------------------------------------------|
d---------------------------------------------------------|
e--10--10-10/12--12-12--17/19--19--19-19--19--19-19--17---|
b--8---8--8-/10--10-10--15/17--17--17-17--17--17-17--15---|

e------------------------------------------------|
b------------------------------------------------|
g------------------------------------------------|
d------------------------------------------------|
e--10--10-10/12--12-12--5/7--7--7-7--7--7-7--5---|
b--8---8--8-/10--10-10--3/5--5--5-5--5--5-5--3---|

e-----------------------------------|
b-----------------------------------|
g-----------------------------------|
d-----------------------------------|
a--10--10-10/12---12--3-3--12-10-5--|
b--8---8--8-/10---10--1-1--10-8--3--|

e-----------------|
b-----------------|
g-----------------|
d--0h2-3p2--------| x7
e--0-------3p0----|
b--------------3--|

e------------------------|
b------------------------|
g------------------------|
d------------------------|
e--5-7------5-7-----5----|
b--3-5------3-5-----3----|

e-----------------------------|
b-----------------------------|
g-----------------------------|
d----------------2-2-0-2-2-4--| x3
e----------5-----0-0-----0-0--|
b--0-3-3-3---5-0--------------|

e---------------------|
b---------------------|
g---------------------|
d----------------2----|
e----------5-----0----|
b--0-3-3-3---5-0------|

e---------------------|
b---------------------|
g---------------------|
d---------------------| x4
e--5/7--7~--10/7--5---|
b--3/5--5~--8-/5--3---|

solo (with wah)
e------------------------------------------------------------------------|
b------------------------------------------------------------------------|
g------------------------------------------------------------------------|
d--12h14-14-14-14-14-14--19h21-21-21-21-21-21-21--12h14-14-14-14-14-14---|
e------------------------------------------------------------------------|
b------------------------------------------------------------------------|

e----------------------------------------------------------------------------------|
b-------------------------------------15-14-----------10h12------------------------|
g-------------19-18----18h19--0-11-12-------12-14bp12-------12-11b12\11r10-9~~\\\--|
d--19h21-21b--------19-------------------------------------------------------------|
e----------------------------------------------------------------------------------|
b----------------------------------------------------------------------------------|

e--------------------------------------------------------|
b--------------------------------------------------------|
g----11-12----------11-12--------11-11-------------------|
d--9-------12-11--9-------12-11--------11b12--7~~-////---|
e--------------------------------------------------------|
b--------------------------------------------------------|
   ph - - - - - - - - - - - - - - - - - |

e-----------------|
b-----------------|
g-----------------|
d--0h2-3p2--------| x7
e--0-------3p0----|
b--------------3--|

e------------------------|
b------------------------|
g------------------------|
d------------------------|
e--5-7------5-7-----5----|
b--3-5------3-5-----3----|

e-----------------------------|
b-----------------------------|
g-----------------------------|
d----------------2-2-0-2-2-4--| x3
e----------5-----0-0-----0-0--|
b--0-3-3-3---5-0--------------|

e---------------------------|
b---------------------------|
g---------------------------|
d---------------------------|
e----------5-----7-(hold)---|
b--0-3-3-3---5-0-5----------|

e----------------|
b----------------|
g----------------|
d----------------| x3
e---7--7-(hold)--|
b---0--5---------|

e--------------------------------|
b--------------------------------|
g--------------------------------|
d--------------------------------|
e---7---7-7--5\\\--12-12--10///--|
b---0---5-5--3\\\--10-10--8-///--|

e---------------------------|
b---------------------------|
g---------------------------|
d---------------------------| x3
e--7-7--5\\\--12-12--10///--|
b--5-5--3\\\--10-10--8-///--|

e------------------------------|
b------------------------------|
g------------------------------|
d------------------------------| x4
e--7-7--5-xx-xx--12-12--10-----|
b--5-5--3-xx-xx--10-10--8--0---|

e--------------------------|
b--------------------------|
g--------------------------|
d--------0-----------------| x3
e----5-3-----------3-------|
b--5-------3---5-3---0-3---|

e--------------------------------------|
b--------------------------------------|
g--------------------------------------|
d--------------------------------------|
e--------10-10------------10---12///---|
b--12-10-------10---12-10----0-10///---|

e-------------------------------------------------------------------------------|
b-------------------------------------------------------------------------------|
g-------------------------------------------------------------------------------|
d--2p0----------------2p0-------------------2p0----------------2p0--------------|
e-----3p2p0--------------3p2p0-------5--3------3p2p0--------------3p2p0----7----|
b-----------3--3--3------------3--5------------------3--3--3------------3--5----|

e--------------------------|
b--------------------------|
g--------------------------|
d--------0-----------------|
e----5-3-----------3-------|
b--5-------3---5-3---0-3---|

e---------------------------|
b---------------------------|
g---------------------------|
d---------------------------| x3
e-----------5-7-x-10h12-10--|
b--3-5-x-xx-----------------|

e------------------------------|
b------------------------------|
g------------------------------|
d------------------------------|
a-----0-5h7-0-10h12-0-5h7-0----|
d-3h5-----------------------3--|

b-------------------|
g-------------------|
d-------------------|
a-------------------| x6
e-------------------|
b--5-xxxxx-3-xxxxx--|

e--------------------------------------|
b--------------------------------------|
g--------------------------------------|
d--------------------------------------|
e----3h5----3h5---5-7---5-7---5---/7---|
b--5------3-------3-5---3-5---3---/5---|

e----------------------------------------------|
b----------------------------------------------|
g----------------------------------------------|
d---------------------------2-2b-2b-2-2b-------| x7
a--0h2-0h2-0h2-0h2-2b3r2b3--0-------0----5-5b--|
d--0---0---0---0---0---------------------3-3b--|

e-------------------------------------------|
b-------------------------------------------|
g-------------------------------------------|
d---------------------------2---------------|
a--0h2-0h2-0h2-0h2-2b3r2b3--0---------------|
d--0---0---0---0---0------------------------|

(clean with slight delay)

e------------------|
b------------------|
g------------------|
d--7h9----0h2------|
e--0------0--------|
b------------------|

e--------------------------------0--|
b------------------------------0----|
g----------------------------0------|
d-----9-7h9p7-5-4-5-4--0--2---------|
e--0--------------------------------|
b-----------------------------------|



08 Ticks And Leeches

Tuning: drop D


Legend

nh - natural harmonic
 ph - pinch harmonic

pm - palm mute
 x - muted string

h - hammer on
 p - pull off

// - slide down
 \\ - slide up

b - bend
 ~~ - vibrato

<7> - natural harmonic
 x/// - pick scrape (directions same as slide)

(distorion)

*rest, 8 bars*

*volume off, delay on, hit open D5 chord and slowly bring in volume over 2 bars*

*feedback*


(distorion)

*rest, 8 bars*

*volume off, delay on, hit open D5 chord and slowly bring in volume over 2 bars*

*feedback*

e------------------------|
b------------------------|
g------------------------|
d--///(pick scratch)///--
a------------------------|
d------------------------|

e-------------------------------|
b-------------------------------|
g-------------------------------|
d--14---12-14-14b---14---14-12--|
a-------------------------------|
d-------------------------------|

e-------------------------------------|
b---------------------------------15--|
g------------------------------14-----|
d--14---12-14-14ph--14---14-12--------|
a-------------------------------------|
d-------------------------------------|

e------------------------------------------------------------------------------|
b--17-17-17-17-17-15--17-17-17-17-17-15--17-17-17-17-17-15--15-15-15-15-15-15--|
g--16-16-16-16-16-14--16-16-16-16-16-14--16-16-16-16-16-14--14-14-14-14-14-14--|
d--14-14-14-14-14-12--14-14-14-14-14-12--14-14-14-14-14-12--12-12-12-12-12-12--| x2
a------------------------------------------------------------------------------|
d------------------------------------------------------------------------------|

(delay off)

e----------------------------|
b----------------------------|
g----------------------------|
d----------------------------| x5
a--------0h2-----------------|
d--2-0h2-----0-2-0h3p0-2h3---|

e--------------------------|
b--------------------------|
g--------------------------|
d--2----------//14------0--|
a--2----------//14------0--|
d--2----------//14------0--|

(fast triplets)
e-----------------------------------------------|
b-----------------------------------------------|
g-----------------------------------------------|
d-----------------------------------------------| x3
a-----------------------------------------------|
d--14-14-14---14-14-14---14-14-14---12-12-12----|
   pm - - |   pm - - |   pm - - |   pm - - |

e------------------------------------------|
b------------------------------------------|
g------------------------------------------|
d------------------------------------------|
a--------------------------------------14--|
d--14-14-14---14-14-14---14-14-14---14-----|
   pm - - |   pm - - |   pm - - |   ph -|

e---------------------------|
b---------------------------|
g---------------------------|
d---------------------------|
a--------0h2----------------|
d--2-0h2-----0-2-0h3p0-2h3--|

e-----------------------------|
b-----------------------------|
g-----------------------------|
d-----------------------------|
a--------0h2-----------3---0--|
d--2-0h2-----0-2-0h3p0---5----|

e---------------------------|
b---------------------------|
g---------------------------|
d---------------------------|
a--------0h2----------------|
d--2-0h2-----0-2-0h3p0-2h3--|

e---------------------------|
b---------------------------|
g---------------------------|
d-----------------10-10b-0--|
a--------0h2------10-10b-0--|
d--2-0h2-----0-2--10-10b-0--|

e-----------------------------|
b-----------------------------|
g-----------------------------|
d--2-xx-10-x-2-x-9---9-5-4-0--| x3
a--2-xx-10-x-2-x-9---9-5-4-0--|
d--2-xx-10-x-2-x-9---9-5-4-0--|
                     pm - -|

e-----------------------------|
b-----------------------------|
g-----------------------------|
d--2-xx-10-x-2-x-9------------|
a--2-xx-10-x-2-x-9------------|
d--2-xx-10-x-2-x-9---9-5-4-0--|

e---------------------------------------------|
b---------------------------------------------|
g---------------------------------------------|
d----2p0-------3-2--2p0-----2p0-------3-2--0--| x2
a--------3p2p0------------------3p2p0---------|
d--2----------------------2-------------------|

e-----------12----------------------------------------|
b--------------12------//(string rubs with delay)//---|
g----------------------////////////////////////////---|
d--12b~-----------------------------------------------|
a-----------------------------------------------------|
d-----------------------------------------------------|

*rest for 2 bars*

e----------------------|
b----------------------|
g----------------------|
d--2--0-2--2-0-2--2-3--| x3
a--2--0-2--2-0-2--2-3--|
d--2--0-2--2-0-2--2-3--|

e--------------------------|
b--------------------------|
g--------------------------|
d--2--0-2--2---------------|
a--2--0-2--2-3----3-3h5----|
d--2--0-2--2---h5-------0--|

e-----------------------------|
b-----------------------------|
g-----------------------------|
d--2-xx-10-x-2-x-9---9-5-4-0--| x4
a--2-xx-10-x-2-x-9---9-5-4-0--|
d--2-xx-10-x-2-x-9---9-5-4-0--|
                     pm - -|

e---------------------------------------------|
b---------------------------------------------|
g---------------------------------------------|
d--0h2-2-2-0-5-0-3-0h1-0h2-2-2-0-5-0-3-0h3-5--| x2
a--0h2-2-2-0-5-0-3-0h1-0h2-2-2-0-5-0-3-0h3-3--|
d--0h2-2-2-0-5-0-3-0h1-0h2-2-2-0-5-0-3-0h3-3--|
  pm - - - - - - - - - - - - - - - - - - - -|

e---------------------------------------------|
b---------------------------------------------|
g---------------------------------------------|
d--0h2-2-2-0-5-0-3-0h1-0h2-2-2-0-5-0-3-0h3-5--| x2
a--0h2-2-2-0-5-0-3-0h1-0h2-2-2-0-5-0-3-0h3-3--|
d--0h2-2-2-0-5-0-3-0h1-0h2-2-2-0-5-0-3-0h3-3--|

*hold*

(clean)

e-----------------------------------------|
b------------------------------------3----|
g--------------------------------2-2-2-2--|
d--4--2-----2--4-2--4--2--5--0---0-0-0-0--| x15
a--2--2--2--2--2-2--2--2--5--0-0-0-----0--|
d--2--2--2--2--2-2--2--2--5--0-0----------|

*rest, 1 bar*

(distortion)

e-------------------------------------------------------------------------|
b-------------------------------------------------------------------------|
g-------------------------------------------------------------------------|
d--16--14-14-14-14--14-14-14-14--14-14-14-14--16--14--17--12-12-12-12-12--| x3
a--14--14-14-14-14--14-14-14-14--14-14-14-14--14--14--17--12-12-12-12-12--|
d--14--14-14-14-14--14-14-14-14--14-14-14-14--14--14--17--12-12-12-12-12--|

e-------------------------------------------------------------------------|
b-------------------17-17-17-17--17-17-17-17------17--20--15-15-15-15-15--|
g-------------------16-16-16-16--16-16-16-16------16--19--14-14-14-14-14--|
d--16--14-14-14-14--14-14-14-14--14-14-14-14--16--14--17--12-12-12-12-12--| x2
a--14--14-14-14-14--14-14-14-14--14-14-14-14--14--14--17--12-12-12-12-12--|
d--14--14-14-14-14--14-14-14-14--14-14-14-14--14--14--17--12-12-12-12-12--|

e---------------------------------------------------------------|
b---------------------------------------------------------------|
g---------------------------------------------------------------|
d--16--14-14-14-14--14-14-14-14--14-14-14-14--16--14--17--12----|
a--14--14-14-14-14--14-14-14-14--14-14-14-14--14--14--17--12----|
d--14--14-14-14-14--14-14-14-14--14-14-14-14--14--14--17--12----|
      pm - - - - - - - - - - - - - - - - - -

e--------------------------------|
b--------------------------------|
g--------------------------------|
d-//14---12-14-14b---14---14-12--|
a--------------------------------|
d--------------------------------|

e-------------------------------------|
b---------------------------------15--|
g------------------------------14-----|
d--14---12-14-14ph--14---14-12--------|
a-------------------------------------|
d-------------------------------------|

e------------------------------------------------------------------------------|
b--17-17-17-17-17-15--17-17-17-17-17-15--17-17-17-17-17-15--15-15-15-15-15-15--|
g--16-16-16-16-16-14--16-16-16-16-16-14--16-16-16-16-16-14--14-14-14-14-14-14--|
d--14-14-14-14-14-12--14-14-14-14-14-12--14-14-14-14-14-12--12-12-12-12-12-12--|
a------------------------------------------------------------------------------|
d------------------------------------------------------------------------------|

                                                           (feedback)
e--------------------------------------------------------------------|
b--17-17-17-17-17-15--17-17-17-17-17-15--17-17-17-17-17-15--b-r-b----|
g--16-16-16-16-16-14--16-16-16-16-16-14--16-16-16-16-16-14--b-r-b----|
d--14-14-14-14-14-12--14-14-14-14-14-12--14-14-14-14-14-12--b-r-b----|
a-------------------------------------------------------0------------|
d-------------------------------------------------------0------------|

e---------------------------------|
b---------------------------------|
g---------------------------------|
d--0--(feedback)---////pick////---|
a--0---------------////scrape//---|
d--0------------------------------|

e---------------------|
b---------------------|
g---------------------|
d--2-\\-10-/-2-\-9-/--| x4
a--2-\\-10-/-2-\-9-/--|
d--2-\\-10-/-2-\-9-/--|

e-------------------------|
b-------------------------|
g-------------------------|
d--2-00-10-0-2-0-9--9-10--|
a--2-00-10-0-2-0-9--9-10--|
d--2-00-10-0-2-0-9--9-10--|
     pm   pm  pm

e-------------------------|
b-------------------------|
g-------------------------|
d--2-00-10-0-2-0-9--10-9--|
a--2-00-10-0-2-0-9--10-9--|
d--2-00-10-0-2-0-9--10-9--|
     pm   pm  pm

e-------------------------|
b-------------------------|
g-------------------------|
d--2-00-10-0-2-0-9--9-10--|
a--2-00-10-0-2-0-9--9-10--|
d--2-00-10-0-2-0-9--9-10--|
     pm   pm  pm

e----------------------------|
b----------------------------|
g----------------------------|
d--2-00-10-0-2-0-9-----------|
a--2-00-10-0-2-0-9-----------|
d--2-00-10-0-2-0-9--9-5-4-0--|
     pm   pm  pm

e------------------------------|
b------------------------------|
g------------------------------|
d--0-0-0-0-0-0-0-0-0-0-0-0-0---|
a--0-0-0-0-0-0-0-0-0-0-0-0-0---|
d--0-0-0-0-0-0-0-0-0-0-0-0-0---|
   pm - - - - - - - - - - -|

e---------------------------------|
b---------------------------------|
g-5-5-----5-5-----5-5-------------|
d-5-5-000-5-5-000-5-5-000--0--2---|
a-3-3-000-3-3-000-3-3-000--0--2---|
d-----000-----000-----000--0--2---|
        pm-       pm-       pm-




09 Lateralus

Tuning: drop D


Legend

nh - natural harmonic
 ph - pinch harmonic

pm - palm mute
 x - muted string

h - hammer on
 p - pull off

// - slide down
 \\ - slide up

b - bend
 ~~ - vibrato

(clean, delay)

e---------------------------|
b---------------------------|
g----------5----------------|
d----7-5h7----7--7-5h7-5-0--| x3
a---------------------------|
d--0------------------------|

e-------------------------------------------|
b-------------------------------------------|
g----------5--------------------------------|
d----7-5h7----7--7-5h7-5-0-----7------7-----| x8
a-------------------------------------------|
d--0-------------------------5------3-------|

e----------------------------------------------------------------------|
b----------------------------------------------------------------------|
g----------------------------------------------------------------------|
d--0-0-x-0-0-x-0-5-5-5-0-3--3-3-x-3-3-x-3-55-3-0-3-5-5-5--x-5-3\10-12--| x2
a--0-0-x-0-0-x-0-5-5-5-0-3--3-3-x-3-3-x-3-55-3-0-3-5-5-5--x-5-3\10-12--|
d--0-0-x-0-0-x-0-5-5-5-0-3--3-3-x-3-3-x-3-55-3-0-3-5-5-5--x-5-3\10-12--|

e------------------------------------------------------------------------|
b------------------------------------------------------------------------|
g------------------------------------------------------------------------|
d--0-0-x-0-0-x-0-5-5-5-0-3--3-3-x-3-3-x-3-55-3-0-3-5-5-5--x-5-3-3h5-3-0--|
a--0-0-x-0-0-x-0-5-5-5-0-3--3-3-x-3-3-x-3-55-3-0-3-5-5-5--x-5-3-3h5-3-0--|
d--0-0-x-0-0-x-0-5-5-5-0-3--3-3-x-3-3-x-3-55-3-0-3-5-5-5--x-5-3-3h5-3-0--|

*rest for 8 bars*

e---------------------------------------|
b---------------------------------------|
g---------------------------------------|
d--7-5-3-0--0-3-3-3-3-0-0-0-0--5-5-5-5--| x7
a--7-5-3-0--0-3-3-3-3-0-0-0-0--5-5-5-5--|
d--7-5-3-0--0-3-3-3-3-0-0-0-0--5-5-5-5--|
   pm - - - - - - - - - - - - - - - -|

e---------------------------------------------------------|
b---------------------------------------------------------|
g---------------------------------------------------------|
d--7-5-3-0--0-3-3-3-3-0-0-0-0--5-5-5-5--5-5-5-5--5-5-5-5--|
a--7-5-3-0--0-3-3-3-3-0-0-0-0--5-5-5-5--5-5-5-5--5-5-5-5--|
d--7-5-3-0--0-3-3-3-3-0-0-0-0--5-5-5-5--5-5-5-5--5-5-5-5--|
   pm - - - - - - - - - - - - - - - - - - - - |

e----------------------------------------------------------------------|
b----------------------------------------------------------------------|
g----------------------------------------------------------------------|
d--0-0-x-0-0-x-0-5-5-5-0-3--3-3-x-3-3-x-3-55-3-0-3-5-5-5--x-5-3\10-12--| x2
a--0-0-x-0-0-x-0-5-5-5-0-3--3-3-x-3-3-x-3-55-3-0-3-5-5-5--x-5-3\10-12--|
d--0-0-x-0-0-x-0-5-5-5-0-3--3-3-x-3-3-x-3-55-3-0-3-5-5-5--x-5-3\10-12--|

e---------------------------------------------------------------------|
b--3-3--3-3----8-8-8---6--6-6--6-6------------------------------------|
g--2-2--2-2----7-7-7---5--5-5--5-5------------------------------------|
d--0-0--0-0--0-5-5-5-0-3--3-3--3-3-x-3-55-3-0-3-5-5-5--x-5-3-3h5-3-0--|
a--0-0--0-0--0-5-5-5-0-3--3-3--3-3-x-3-55-3-0-3-5-5-5--x-5-3-3h5-3-0--|
d--0-0--0-0--0-5-5-5-0-3--3-3--3-3-x-3-55-3-0-3-5-5-5--x-5-3-3h5-3-0--|

*rest for 8 bars*

e---------------------------------------|
b---------------------------------------|
g---------------------------------------|
d--7-5-3-0--0-3-3-3-3-0-0-0-0--5-5-5-5--| x7
a--7-5-3-0--0-3-3-3-3-0-0-0-0--5-5-5-5--|
d--7-5-3-0--0-3-3-3-3-0-0-0-0--5-5-5-5--|
   pm - - - - - - - - - - - - - - - -|

e-------------------------------------------------|
b-------------------------------------------------|
g-------------------------------------------------|
d--7-5-3-0--0-3-3-3-3-0-0-0-0--5-5-5-5---5-5-5-5--|
a--7-5-3-0--0-3-3-3-3-0-0-0-0--5-5-5-5---5-5-5-5--|
d--7-5-3-0--0-3-3-3-3-0-0-0-0--5-5-5-5---5-5-5-5--|
   pm - - - - - - - - - - - - - - - -|

e----------------------------------------------------------------------|
b----------------------------------------------------------------------|
g----------------------------------------------------------------------|
d--0-0-x-0-0-x-0-5-5-5-0-3--3-3-x-3-3-x-3-55-3-0-3-5-5-5--x-5-3\10-12--|
a--0-0-x-0-0-x-0-5-5-5-0-3--3-3-x-3-3-x-3-55-3-0-3-5-5-5--x-5-3\10-12--|
d--0-0-x-0-0-x-0-5-5-5-0-3--3-3-x-3-3-x-3-55-3-0-3-5-5-5--x-5-3\10-12--|

e------------------------------------------------------------------|
b--3-3--3-3----8-8-8---6--6-6--6-6---------------------------------|
g--2-2--2-2----7-7-7---5--5-5--5-5---------------------------------|
d--0-0--0-0--0-5-5-5-0-3--3-3--3-3--3-55-3-0-3-5-5-5--x-5-3\10-12--|
a--0-0--0-0--0-5-5-5-0-3--3-3--3-3--3-55-3-0-3-5-5-5--x-5-3\10-12--|
d--0-0--0-0--0-5-5-5-0-3--3-3--3-3--3-55-3-0-3-5-5-5--x-5-3\10-12--|

1st solo (w/wah, starts closed, move gradually to open)
e------------|
b------------|
g------------|
d--0--10-12--| x7
a------------|
d------------|

e-------------------------------------------------------------|
b-------------------------------------------------------------|
g--9h10p9-0-----9h10h9-0---------9h10p9-0---------------------|
d-----------7------------7-5-3------------10-9--10-5-7-/-12~--|
a-------------------------------------------------------------|
d-------------------------------------------------------------|

e------------------------------------------------------------------------------|
b------------------------------------------------------------------------------|
g--9h10h9-0-----------9h10p9-0-------------------------------------------------|
d-----------7-5-3\7------------10-9--10-7-(rock wah back/forth)--/10h12p10p0---|
a------------------------------------------------------------------------------|
d------------------------------------------------------------------------------|

e---------------------|
b---------------------|
g---------------------|
d--0-10-12-12-10-12---| x2
a--0-10-12-12-10-12---|
d--0-10-12-12-10-12---|

e------------|
b------------|
g------------|
d--0-0-0-0---| x4
a--0-0-0-0---|
d--0-0-0-0---|

*rest, 8 bars*

(clean, delay)

e-----------------------------|
b-----------------------------|
g-----------------------------|
d----7----7----7--------------|
a-----------------------------|
d--5----3----0----------------|

e-----------------------------|
b-----------------------------|
g-----------------------------|
d----7----7----7--5h7---------|
a-----------------------------|
d--5----3----0----------------|

e-----------------------------|
b-----------------------------|
g---------------------5-------|
d----7----7----7--5h7---7-----|
a-----------------------------|
d--5----3----0----------------|

e-------------------------------------|
b-------------------------------------|
g---------------------5---------------|
d----7----7----7--5h7---7--7-5h7-5-0--| x5
a-------------------------------------|
d--5----3----0------------------------|

e---------------------------|
b---------------------------|
g-----------5---------------|
d----7--5h7---7--7-5h7-5-0--| x2
a---------------------------|
d--0------------------------|

e---------------------------------|
b---------------------------------|
g---------------------------------|
d--5-7--3-7--0-7-5h7-3-7-5h7-5-0--|
a--5----3----0-------3------------|
d--5----3----0-------3------------|

e-------------------------------|
b-------------------------------|
g-------------------------------|
d--5-7--3-7--0-7-5h7-3-7-\-10---|
a--5----3----0-------3-----10---|
d--5----3----0-------3-----10---|

e-------------|
b-------------|
g-------------|
d--5----3-----|
a--5----3-----|
d--5----3-----|

(distortion)

============
2nd solo (w/wah, this is a solo you have to 'feel' to play properly)

(first note: wah starts open (bass), gradually going to close (treble),
             then back to open, rock the wah)
(second note: wah is closed)

e---------------------------------------------------|
b---------------------------------------------------|
g--(tremolo pick)-----------------------------------|
d------------------12~~~bbbb~~~~--///pick scrape//--|
a--12~~~~~~~~~~~~-----------------------------------|
d---------------------------------------------------|

e-----------------------------------------------------|
b-----------------------------------------------------|
g-----------------------------------------------------|
d--12~~~--12-10--5p3p0-5--3---5p3p0-5--3--0h3h5-5b----|
a-----------------------------------------------------|
d-----------------------------------------------------|
============

e-------------|
b-------------|
g-------------|
d--5----3-----|
a--5----3-----|
d--5----3-----|

e---------------|
b---------------|
g---------------|
d--0--0-0-0-0---| x4
a--0--0-0-0-0---|
d--0--0-0-0-0---|

e-----------|
b-----------|
g-----------|
d--x-0--0---| x40
a--x-0--0---|
d--x-0--0---|

e-------------------------------------------------------------|
b--15-15--13-13--15-15--18-18----15-15--13-13--18-18--15-15---|
g--14-14--12-12--14-14--17-17----14-14--12-12--17-17--14-14---|
d--12-12--10-10--12-12--15-15----12-12--10-10--15-15--12-12---|
a--12-12--10-10--12-12--15-15----12-12--10-10--15-15--12-12---|
d--12-12--10-10--12-12--15-15----12-12--10-10--15-15--12-12---|

e-----------|
b-----------|
g-----------|
d--x-5--5---| x7
a--x-5--5---|
d--x-5--5---|

e-----------|
b-----------|
g-----------|
d--x-3------|
a--x-3------|
d--x-3------|

e--------------------------------|
b--------------------------------|
g--------------------------------|
d--0--3--0--3-3-3--0--3-3--3--0--| x4
a--0--3--0--3-3-3--0--3-3--3--0--|
d--0--3--0--3-3-3--0--3-3--3--0--|
            nh -|     nh-

(and this is how the ending was done live...)

(wah closed, ie treble sound)

e--------------------|
b--------------------|
g--------------------|
d--------------------|
a--17----------15----|
d-----15-15-17----0--|

e--------------------|
b--------------------|
g--------------------|
d--------------------| x5
a--12-----------15---|
d-----15-15-17----0--|

e--------------------|
b--------------------|
g--------------------|
d--------------------| x4
a--17----------15----|
d-----15-15-17----0--|

e---------------------|
b---------------------|
g---------------------|
d---------------------|
a--12----------10-----|
d-----10-10-12----12--|

(wah off)

e----------------------------|
b----------------------------|
g----------------------------|
d--5---3----10---12--0-------|
a--5---3----10---12--0-------|
d--5---3----10---12--0-------|



10 Disposition

Tuning: drop D


Legend

nh - natural harmonic
 ph - pinch harmonic

pm - palm mute
 x - muted string

h - hammer on
 p - pull off

\\ - slide down
 // - slide up

b - bend
 ~~ - vibrato

<7> - natural harmonic
 x/// - pick scrape (directions same as slide)

Note: Excuse the departure from my usual tab format,
      I'm being elegant since this is an elegant song

      As well - the bass is doing those underlying harmonics
      in the beginning, trust me, channel inversion and mixing
      doesn't lie (cuts out the bass and vocals almost completely)

(electric clean, delay)
e------------------------|------------------------|
b------------------------|------------------------|
g------------------------|------------------------|
d------------------------|------------------------|
a-<7>--------------------|-<7>--------------------|
d------------------------|------------------------|

e------------------------|------------------------|
b------------------------|------------------------|
g------------------------|------------------------|
d------------------------|------------------------|
a-<7>--------------------|-<7>--------------------|
d------------------------|------------------------|

e------------------------|------------------------|
b---<7>------------------|---<7>------------------|
g------------------------|-----<7>----------------|
d------------------------|------------------------|
a-<7>--------------------|-<7>--------------------|
d------------------------|------------------------|

(electric)
e------------------------|------------------------|
b---<7>------------------|---<7>----<7>-----------|
g-----<7>----------------|-----<7>----------------|
d-------<7>--------------|-------<7>--------------|
a-<7>--------------------|-<7>--------------------|
d------------------------|------------------------|
|                        |
|(acoustic)              |
e------------------------|------------------------|
b------------------------|------------------------|
g------------------------|------------------------|
d------------------------|------------------------|
a------------------------|-7----------------------|
d------------------------|------------------------|

e------------------------|------------------------|
b---<7>-------10--7--7---|---<7>----------7--7----|
g-----<7>----------------|-----<7>----------------|
d-------<7>--------------|-------<7>---9----------|
a-<7>--------------------|-<7>--------------------|
d------------------------|------------------------|
|                        |
e------------------------|------------------------|
b------------------------|------------------------|
g------------------------|------------------------|
d-2---4-4h5-4------------|-2---4-4h5-4------------|
a------------------------|------------------------|
d------------------------|------------------------|

e------------------------|------------------------|
b---<7>----<7>--10-7--7--|---------------7--7-----|
g-----<7>----------------|--7--9------------------|
d-------<7>----0---------|------------9-----------|
a-<7>--------------------|------------------------|
d------------------------|------------------------|
|                        |
e------------------------|------------------------|
b------------------------|------------------------|
g------------------------|------------------------|
d-2---4-4h5-4------------|-2---4-4h5-4------------|
a------------------------|------------------------|
d------------------------|------------------------|

e------------------------|------------------------|
b---<7>-------10--7--7---|---<7>----------7--7----|
g-----<7>----------------|-----<7>----------------|
d-------<7>--------------|-------<7>---9----------|
a-<7>--------------------|-<7>--------------------|
d------------------------|------------------------|
|                        |
e------------------------|------------------------|
b------------------------|------------------------|
g------------------------|------------------------|
d-2---4-4h5-4------------|-2---4-4h5-4------------|
a------------------------|------------------------|
d------------------------|------------------------|

e------------------------|------------------------|
b---<7>----<7>--10-7--7--|------------------------|
g-----<7>----------------|--7--9--7---------------|
d-------<7>----0---------|------------------------|
a-<7>--------------------|------------------------|
d------------------------|------------------------|
|                        |
e------------------------|------------------------|
b------------------------|------------------------|
g----------------5--4----|------------------------|
d-2---4-4h5-4------------|-2---4-4h5-4------------|
a------------------------|------------------------|
d------------------------|------------------------|

1:24

                                              x3
e------------------------|------------------------|
b------------------------|------------------------|
g-9----------------------|-9----------------------|
d----9-------------------|----9-------------------|
a------------------------|------------------------|
d------------------------|------------------------|
|                        |                    x3
e------------------------|------------------------|
b------------------------|------------------------|
g------------------------|------------------------|
d-------------2--4-------|-2---4-4h5-4------------|
a------------------------|------------------------|
d------------------------|------------------------|


e------------------------|------------------------|
b------------------------|------------------------|
g-9----------------------|-9----------------------|
d----9-------------------|----9-------------------|
a------------------------|------------------------|
d------------------------|------------------------|
|                        |
e------------------------|------------------------|
b------------------------|------------------------|
g------------------------|----------------2-------|
d-2---4-4h5-4----0-2-0---|-2---4-4h5-4------------|
a--------------2-------2-|------------------------|
d------------------------|------------------------|

e------------------------|------------------------|
b------------------------|------------------------|
g-9----------------------|-9---------------7b-----|
d----9-------------------|----9-------------------|
a------------------------|------------------------|
d------------------------|------------------------|
|                        |
e------------------------|------------------------|
b------------------------|------------------------|
g------------------------|------------------------|
d-2---4-4h5-4------------|-2---4-4h5-4------------|
a------------------------|------------------------|
d------------------------|------------------------|

                      x3
e------------------------|------------------------|
b------------------------|------------------------|
g-9----------------------|-9----------------------|
d----9-------------------|----9-------------------|
a------------------------|------------------------|
d------------------------|------------------------|
|                     x3 |
e------------------------|------------------------|
b------------------------|------------------------|
g------------------------|------------------------|
d-2---4-4h5-4------------|-2---4------------------|
a------------------------|------------------------|
d------------------------|------------------------|

2:27

(electric, left channel)                       x3                       x4
e------------------------|------------------------|------------------------|
b---7--7--7-7------------|---7--7--7-7------------|---7-7-7--7-7-----------|
g----------------7-9-7---|-----------------7-9-7--|-----------------7-9-7--|
d-9-----------9----------|-9------------9---------|-9-------------9--------|
a------------------------|------------------------|------------------------|
d------------------------|------------------------|------------------------|
|                        |                        |
|(electric,right channel)|                     x3 |                     x4
e------------------------|------------------------|------------------------|
b---7--7--7-7------------|---7--7--7-7------------|---7-7-7--7-7-----------|
g----------------7-9-7-7-|9-7-------------7-9-7-7-|9-7-------------7-9-7-7-|
d-9-----------9----------|-------------9----------|-------------9----------|
a------------------------|------------------------|------------------------|
d------------------------|------------------------|------------------------|
|                        |                        |
|(acoustic)              |                        |        (2nd time only)
e------------------------|------------------------|------------------------|
b------------------------|------------------------|------------------------|
g------------------------|------------------------|------------------------|
d-2----------------------|-2----------------------|-<7>-<7>----------------|
a------------------------|------------------------|------------------------|
d------------------------|------------------------|------------------------|

(electric, left channel)
                      x4
e------------------------|------------------------|-----------------------7-------|
b-----7-7h8-7------------|-----7-7h8-7------------|-----7-7h8-7-777-77-7-8--8-7-8-|
g-9----------------------|-9----------------------|-9-----------------------------|
d------------------------|------------------------|-------------------------------|
a------------------------|------------------------|-------------------------------|
d------------------------|------------------------|-------------------------------|
|                        |
|(electric, right)    x4 |
e------------------------|------------------------|-------------------------------|
b------7-7h8-7-----------|------------------------|-------------------------------|
g--9---------------------|--9----9b---------------|-9---7b----9b------------------|
d------------------------|-----------9------------|----------------------9--------|
a------------------------|------------------------|-------------------------------|
d------------------------|------------------------|-------------------------------|
|                        |
|(acoustic)           x4 |
e------------------------|------------------------|-------------------------------|
b------------------------|------------------------|-------------------------------|
g-------<7>--------------|------------------------|------------------------0-2-0--|
d----<7>---<7>-----------|-2---4-4h5-4------------|-2---4-4h5-4----------2--------|
a-<7>--------------------|------------------------|-------------------------------|
d------------------------|------------------------|-------------------------------|


(electric, left channel)                                                 x2
e------------------------|------------------------|-------------------------|
b-----7-7h8-7------------|-----7-7h8-7------------|-----7-7h8-7-------------|
g-9----------------------|-9-----------------7/9--|-9-----------------------|
d------------------------|------------------------|-------------------------|
a------------------------|------------------------|-------------------------|
d------------------------|------------------------|-------------------------|
|                        |                        |
|(electric,right channel)|                        |                      x2
e------------------------|------------------------|-------------------------|
b------7-7h8-7-----------|------7--7h8-7----------|------7-7h8-7------------|
g--9---------------------|--9-----------------7/9-|--9----------------------|
d---------------9--------|---------------9--------|---------------9---------|
a------------------------|------------------------|-------------------------|
d------------------------|------------------------|-------------------------|
|                        |                        |
|(acoustic)              |                        |                      x2
e------------------------|------------------------|-------------------------|
b------------------------|------------------------|-------------------------|
g------------------------|------------------------|-------------------------|
d--------0-2-0-----0-2-0-|--------0-2-0-----0-2-0-|---------0-2-0-----0-2-0-|
a-2-----2-----2---2------|-2-----2-----2---2------|-2------2-----2---2------|
d------------------------|------------------------|-------------------------|

(electric, both channels)
e------------------------|------------------------|------------------------|
b-7-----------7----------|-7------------7----5/8--|-7----------5/8-7---5/8-|
g------------------------|------------------------|------------------------|
d---------------9\-------|----------------9\------|------------------9\----|
a------------------------|------------------------|------------------------|
d------------------------|------------------------|------------------------|
|                        |                        |
|(acoustic)              |                        |                      x2
e------------------------|------------------------|-------------------------|
b------------------------|------------------------|-------------------------|
g-------<7>--------------|-------<7>--------------|-------<7>---------------|
d----<7>---<7>-----------|----<7>---<7>-----------|----<7>---<7>------------|
a-<7>--------------------|-<7>--------------------|-<7>---------------------|
d------------------------|------------------------|-------------------------|

e------------------------|
b-7-----------7----------|
g------------------------|
d---------------9\-------|
a------------------------|
d------------------------|
|
e------------------------|
b------------------------|
g-------<7>--------------|
d----<7>---<7>-----------|
a-<7>--------------------|
d------------------------|

(electric, left channel)
e------------------------|------------------------|------------------------|
b-7~-----------7~--------|-7~-----------7~--------|------------------------|
g------------------------|------------------------|---------------9b-------|
d----------------9\------|----------------9\------|------------------9\----|
a------------------------|------------------------|------------------------|
d------------------------|------------------------|------------------------|
|                        |                        |
|(electric,right channel & part of left channel)  |
e------------------------|------------------------|------------------------|
b------------------------|------------------------|------------------------|
g--------------9~--------|--------------9b--------|---------------9b-------|
d----------------9\------|----------------9\------|------------------9\----|
a------------------------|------------------------|------------------------|
d------------------------|------------------------|------------------------|
|                        |                        |
|(acoustic)              |                        |
e------------------------|------------------------|-------------------------|
b------------------------|------------------------|-------------------------|
g------------------------|------------------------|-------------------------|
d------------------------|------------------------|-------------------------|
a-<7>----------<7>-------|-<7>----------<7>-------|-------------------------|
d------------------------|------------------------|-------------------------|




11 Reflection

Tuning: drop D


Legend

nh - natural harmonic
 ph - pinch harmonic

pm - palm mute
 x - muted string

h - hammer on
 p - pull off

// - slide down
 \\ - slide up

b - bend
 ~~ - vibrato

<7> - natural harmonic
 x/// - pick scrape (directions same as slide)


***Note: Adam plays both the synth and the guitar at the same live.
         Quite the talented guy, his timing with the synth and rythmn
         with the guitar were great. He's practiced that's for sure.
         The synth is on the ground in front of him and he just steps
         on a certain pedal on the synth to change notes.

*rest for 12 bars*

(synth arranged for guitar)       x11
e--------------------------------|---------------------------------|
b--------------------------------|---------------------------------|
g--------------------------------|---------------------------------|
d--9------0-------9-----0----10--|--9----0--(synth rising effect)--|
a--9------0-------9-----0----10--|--9----0-------------------------|
d--9------0-------9-----0----10--|--9----0-------------------------|

*guitar starts after 18th bar (9th repetition) of synth*

(guitar)            x4                                                x10
e----------------------|----------------------------------------------------|
b----------------------|----------------------------------------------------|
g----------------------|----------------------------------------------------|
d----------------------|----------------------2-----------------------------|
a--2-x-2-2--22--2--2---|--2-x-2-2--22--2--2h3---3----2-x-2-2--22--2--0--3---|
d----------------------|----------------------------------------------------|

(guitar)
e----------------------------------------------|
b----------------------------------------------|
g----------------------------------------------|
d----------------------------------------------|
a--2br--------2br--------2br--------2br--------|
d----------------------------------------------|

e----------------------------------------------|
b----------------------------------------------|
g----------------------------------------------|
d----------------------------------------------|
a--x///-(near bridge)-------------------x///---|
d----------------------------------------------|

                                 x15
e--------|---------------------------|-----------|
b--------|---------------------------|-----------|
g--------|--------2-2---2-0----------|-----------|
d----4-4-|------4-------------5-4-4--|--2-4------|
a--2-----|--0h2-------3-----2--------|------3-5--|
d--------|---------------------------|-----------|

(synth arr. for guitar)       x4
e--------------------------------|---------------------------------|
b--------------------------------|---------------------------------|
g--------------------------------|---------------------------------|
d--9------0-------9-----0----10--|--9----0--(synth rising effect)--|
a--9------0-------9-----0----10--|--9----0-------------------------|
d--9------0-------9-----0----10--|--9----0-------------------------|

*guitar starts after 4th bar (2nd repetition) of synth*

(guitar)
e----------------------------|
b----------------------------|
g----------------------------|
d----------------------------| x12
a-2-x-2-xxx-x-5-2-x-2h3-2h3--|
d----------------------------|
  pm - - - - - - - - - - -|

*rest for 10 bars*

e----------------------------------------------|
b----------------------------------------------|
g----------------------------------------------|
d----------------------------------------------|
a--2br--------2br--------2br--------2br--------|
d----------------------------------------------|

                                 x15
e--------|---------------------------|----------------------------|
b--------|---------------------------|----------------------------|
g--------|--------2-2---2-0----------|--------2-2---2-0-----------|
d----4-4-|------4-------------5-4-4--|------4-------------5--9-0--|
a--2-----|--0h2-------3-----2--------|--0h2-------3-----2----9-0--|
d--------|---------------------------|-----------------------9-0--|

e-----------------|
b-----------------|
g-----------------|
d--7/10--9-9--0---| x7
a--7/10--9-9--0---|
d--7/10--9-9--0---|

(synth)
e-----------------------|
b-----------------------|
g-----------------------|
d--9--------------------|
a--9---(rising effect)--|
d--9--------------------|

(synth off)

(with wah, starts open)
e-------------------------------------------------|
b-------------------------------------------------|
g-------------------------------------------------|
d---\9--///---\9--///---\10--\12--//-7\10/9--///--|
a-------------------------------------------------|
d-------------------------------------------------|

e-----------------------------------------------|
b-----------------------------------------------|
g-----------------------------------------------|
d---\9--9p7-10--9h10p9h10-9h10-\12--//--7\10/---|
a-----------------------------------------------|
d-----------------------------------------------|

(wah goes from open to closed
 over the 4 times)
e-----------------------------|
b-----------------------------|
g---11-11---11-11------9------|
d-9-------9-------9h12---h12--| x4
a-----------------------------|
d-----------------------------|

e---------------------------------------------------------------------|
b---------------------------------------------------------------------|
g--9--11-11h12-11---9--11-11h12-11-///---9--11-11h12-11---9--11-///---|
d---------------------------------------------------------------------|
a---------------------------------------------------------------------|
d---------------------------------------------------------------------|
                                         ph - - - - - - - - - |

e---------------|
b---------------|
g---------------|
d----4-5-4---4--|
a--2-------2----|
d---------------|

e------------------------------|
b------------------------------|
g-----------------------2p0----|
d----4-5-4---4----4-5-4-----0--| x9
a--2-------2----2--------------|
d------------------------------|

e--------------------------------|
b--------------------------------|
g---------------12-12------------|
d----4-5-4---4--12-12-10--10-10--|
a--2-------2----10-10-10--10-10--|
d---------------------10--10-10--|

e-------------|
b-------------|
g-------------|
d--9--9--0----| x4
a--9--9--0----|
d--9--9--0----|

(w/delay)

e----------------%-------------------%------|
b----------------7-------------------5------|
g--------------pb11r9--------------pb9r7----|
d--9--9--0--0----------9--9--0--0-----------| x2
a--9--9--0--0----------9--9--0--0-----------|
d--9--9--0--0----------9--9--0--0-----------|

e-----*-------------*-------------|
b--7--7--10------7--7--10----5----|
g--9b-9--12b-----9b-9--12b---7b---|
d---------------------------------| x3
a---------------------------------|
d---------------------------------|

e-----*-------------*----^----|
b--7--7--10------7--7----5----|
g--9b-9--12b-----9b-9--pb7----|
d-----------------------------|
a-----------------------------|
d-----------------------------|

e----------------------------------------|
b----------------------------------------|
g----------------------------------------|
d--9-9-0---5--5--5--7\10--9-9-0---5------|
a--9-9-0---5--5--5--7\10--9-9-0---5------|
d--9-9-0---5--5--5--7\10--9-9-0---5------|

(with open wah, left hand fretting only)
e--------------------|
b--------------------|
g--------------------|
d--7\10--9--0---5----| x8
a--7\10--9--0---5----|
d--7\10--9--0---5----|



12 Triad

Tuning: drop D


Legend

nh - natural harmonic
 ph - pinch harmonic

pm - palm mute
 x - muted string

h - hammer on
 p - pull off

// - slide down
 \\ - slide up

b - bend
 ~~ - vibrato

<7> - natural harmonic
 x/// - pick scrape (directions same as slide)

(distortion)

(fades in slowly)

e---------------------------------------------------------------------------|
b---------------------------------------------------------------------------|
g---------------------------------------------------------------------------|
d--x-2-2--x-2-2--x-2-2--x-2h3-2p0-0---x-2-2--x-2-2--x-2h3-2p0-0--2h3-2p0-0--| x16
a--x-2-2--x-2-2--x-2-2--x-2h3-2p0-0---x-2-2--x-2-2--x-2h3-2p0-0--2h3-2p0-0--|
d--x-2-2--x-2-2--x-2-2--x-2h3-2p0-0---x-2-2--x-2-2--x-2h3-2p0-0--2h3-2p0-0--|

solo (w/wah, delay)

*************************

Note:  Adam is patched into his synth for this solo, so that interesting
       tone is generated somehow by his synth, (all I saw was this roady
       run out on stage before the song started and change a patch in the
       back of the synth's footswitch midi controller). Then, when Adam
       wasn't muting his strings he would get almost instant feedback from
       his guitar. It was similar to hooking up several distortion pedals
       in a row into a high volume amp... I will not speculate as to how
       his setup was changed. All I know is that Adam didn't do any pick
       scrapes to get those sounds...

       However, for those of us without an intimate knowledge of Adam's
       setup and access to a Virus synth, I have tabbed it out so the
       rest of us can play it.)

*************************

(with wah closed, and slight delay)

e---------------------------------------|
b--[start at middle]--------------------|
g--[of neck pickup ]--------------------|
d-------------------[end at middle   ]--|
a--------x\\\\------[of bridge pickup]--|
d---------------------------------------|

e--------------------------------------[quick scrape over]--|
b--[start inbetween]-------------------[the bridge pickup]--|
g--[pickups        ]----------------------------------------|
d-------------------[end at middle   ]---x/-----------------|
a---------x\\\------[of bridge pickup]----------------------|
d-----------------------------------------------------------|

e-------------------------------------|
b--[start inbetween]------------------|
g--[pickups        ]------------------|
d-------------------[quick scrape  ]--|
a--------x\---------[towards bridge]--|
d-------------------------------------|

(wah open)

e----[move wah from     ]------------|
b----[from open to close]------------|
g------------------------------------|
d-----------------*slight feedback*--|
a------------------------------------|
d--14~~------------------------------|

e--------------------------------------------------------------|
b--------------------------------------------------------------|
g--------------------------------------------------------------|
d------16--14------12h14p12h14--12~~---14-12-14-12-14-15-14~~--|
a--[wah ]-[wah   ]---------------------------------------------|
d--[open]-[closed]---------------------------------------------|

*rest*

e-------------------------------------|
b--[start near    ]-[wah   ]-[wah ]---|
g--[bridge, end at]-[closed]-[open]---|
d--[bridge pickup ]------2----0-------|
a------------------------2----0-------|
d----------x//-----------2----0-------|

*rest*

e-----[wah   ]------------------------------------------------|
b-----[closed]------------------------------------------------|
g--------------------------------------------------16---------|
d-------------*slight feedback*-------------15-14-----15~~~---|
a---------------------------------\\14------------------------|
d--15--14~~---------------------------------------------------|

e--------------------------------------------------|
b--------------------------------------------------|
g------------------------------------12-11---------|
d--14-12-15-14---14-12-15-14---14-12-------10-12---|
a--------------------------------------------------|
d--------------------------------------------------|

e----------------------------------------------------|
b----------------------------------------------------|
g-----16---14---13-------*slight feedback*-----------|
d--14--------------14~~---------------------x\\\\\\--|
a----[wah open ]------[close wah]-----------x\\\\\\--|
d----------------------------------------------------|

end of solo

2:54

e---------------------------------------------------------------------------|
b---------------------------------------------------------------------------|
g---------------------------------------------------------------------------|
d--x-2-2--x-2-2--x-2-2--x-2h3-2p0-0---x-2-2--x-2-2--x-2h3-2p0-0--2h3-2p0-0--| x6
a--x-2-2--x-2-2--x-2-2--x-2h3-2p0-0---x-2-2--x-2-2--x-2h3-2p0-0--2h3-2p0-0--|
d--x-2-2--x-2-2--x-2-2--x-2h3-2p0-0---x-2-2--x-2-2--x-2h3-2p0-0--2h3-2p0-0--|

e--------------------------------------------------------------------------|
b--------------------------------------------------------------------------|
g--------------------------------------------------------------------------|
d--x-2-2--x-2-2--x-2-2--x-2h3-2p0-0---x-2-2--x-3\5-5-5--5-0-0-0--0-3-3-3---| x2
a--x-2-2--x-2-2--x-2-2--x-2h3-2p0-0---x-2-2--x-3\5-5-5--5-0-0-0--0-3-3-3---|
d--x-2-2--x-2-2--x-2-2--x-2h3-2p0-0---x-2-2--x-3\5-5-5--5-0-0-0--0-3-3-3---|

e--------------------------------------------------------------------------|
b--------------------------------------------------------------------------|
g--------------------------------------------------------------------------|
d--x-2-2--x-2-2--x-2-2--x-8p7-8p7-0----5---------------0-------------------|
a--x-2-2--x-2-2--x-2-2--x-8p7-8p7-0----5---------------0-------------------|
d--x-2-2--x-2-2--x-2-2--x-8p7-8p7-0----5---------------0-------------------|

e------------------------------------------------------------|
b------------------------------------------------------------|
g------------------------------------------------------------|
d--x-2-2--x-2-2--x-2-2--x-2-2--x-2-2--x-2-2--x-10-10-x-5-5---|
a--x-2-2--x-2-2--x-2-2--x-2-2--x-2-2--x-2-2--x-10-10-x-5-5---|
d--x-2-2--x-2-2--x-2-2--x-2-2--x-2-2--x-2-2--x-10-10-x-5-5---|

e--------------------------------------------------------------------|
b--------------------------------------------------------------------|
g--------------------------------------------------------------------|
d--x-2-2--x-2h3-2p0-0--x-7-7-x-5-5--x-2-2--x-2h3-2p0-0--x-8-8-x-7-7--|
a--x-2-2--x-2h3-2p0-0--x-7-7-x-5-5--x-2-2--x-2h3-2p0-0--x-8-8-x-7-7--|
d--x-2-2--x-2h3-2p0-0--x-7-7-x-5-5--x-2-2--x-2h3-2p0-0--x-8-8-x-7-7--|

e----------------------------------|
b----------------------------------|
g----------------------------------|
d--x-2-2--x-8p7-8p7--0--0-0-x-7-7--|
a--x-2-2--x-8p7-8p7--0--0-0-x-7-7--|
d--x-2-2--x-8p7-8p7--0--0-0-x-7-7--|

(left hand tapping)
e----------------|
b----------------|
g----------------|
d----------------| x38
a----------------|
d-h2p0-h2h3p2p0--|

 (fades in over the bar)
e-----------------------------------------------------------------------|
b-----------------------------------------------------------------------|
g-----------------------------------------------------------------------|
d--x-2-2--x-2-2--x-2-2--x-2h3-2p0-0---x-2-2--x-2-2--x-2-2--x-2h3-2p0-0--|
a--x-2-2--x-2-2--x-2-2--x-2h3-2p0-0---x-2-2--x-2-2--x-2-2--x-2h3-2p0-0--|
d--x-2-2--x-2-2--x-2-2--x-2h3-2p0-0---x-2-2--x-2-2--x-2-2--x-2h3-2p0-0--|

e----------------|
b----------------|
g----------------|
d--10--10-x-5-5--|
a--10--10-x-5-5--|
d--10--10-x-5-5--|

e--------------------------------------------------------------------|
b--------------------------------------------------------------------|
g--------------------------------------------------------------------|
d--x-2-2--x-2h3-2p0-0--x-7-7-x-5-5--x-2-2--x-2h3-2p0-0--x-8-8-x-7-7--|
a--x-2-2--x-2h3-2p0-0--x-7-7-x-5-5--x-2-2--x-2h3-2p0-0--x-8-8-x-7-7--|
d--x-2-2--x-2h3-2p0-0--x-7-7-x-5-5--x-2-2--x-2h3-2p0-0--x-8-8-x-7-7--|

e----------------------------------|
b----------------------------------|
g----------------------------------|
d--x-2-2--x-8p7-8p7--0--0-0-x-7-7--|
a--x-2-2--x-8p7-8p7--0--0-0-x-7-7--|
d--x-2-2--x-8p7-8p7--0--0-0-x-7-7--|

(guitar 1)
e-----------------------------|
b-----------------------------|
g-----------------------------|
d--x-2-2--x-2-2--x-0-0-x-7-7--| x3
a--x-2-2--x-2-2--x-0-0-x-7-7--|
d--x-2-2--x-2-2--x-0-0-x-7-7--|

****** guitar 2 starts after one riff of guitar 1

(guitar 2, with vibrato and delay)
              x4                                            x8
e----------------|----------------------------|----------------|
b----------------|----------------------------|----------------|
g----------------|-----0h2-2h3p2-0---2--------|----------------|
d--0-2h3p2-2~~---|-0h2-------------2---2-x-2--|--0-2h3p2-2~~---|
a----------------|----------------------------|----------------|
d----------------|----------------------------|----------------|

******

(guitar 1, wah closed slowly moving to open over the 12 times)
e-----------------------------|
b-----------------------------|
g-----------------------------|
d--x-2-2--x-2-2--x-0-0-x-7-7--| x12
a--x-2-2--x-2-2--x-0-0-x-7-7--|
d--x-2-2--x-2-2--x-0-0-x-7-7--|

(wah goes from open to closed over the 8 times)
e---------------|
b---------------|
g---------------|
d--2-0-2-3-2-0--| x8
a--2-0-2-3-2-0--|
d--2-0-2-3-2-0--|

e-----
b-----
g-----
d--2--
a--2--
d--2--



END!

email: Im_Not_Like_Them_@hotmail.com

Special thanx to: Tooltabs.net

Have fun :-)

            
            
Suggest correction
Creating personal tab
Creating personal tab
You can edit any tab online and save it as your Personal.

You can edit, replace or remove any tab part or add personal notes – all changes will be seen only by you.

Personal tabs can be accessed anytime from any device, even offline.
Learn more »
comments
print report bad tab
5 comments total. Showing first comments.
0 reply
slugs 237 Jan 31, 2006 04:28 AM

Well, yeah! These are the tabs from tooltabs.net
and they are very very accurate!
So if you are searching for good tabs, take these!

0 reply
macolicious14 10 Nov 07, 2006 10:21 AM

good job man ~

0 reply
M-JK 10 Jan 11, 2007 12:44 PM

thanks... uh tooltabs.net then good job

guest
Wanna post a correction for this tab? Suggest correction