Oops, an error
Loading. Please wait.

Lateralus tab

version 1
version 1
by Tool
137,866 views 120 this week
17 commentsread comments
1 2 3 4 5
x 37
add to favorites
×
Save as Personal and add changes to this tab that will be seen only by you. Learn more ›
×
You can save this tab as Personal to edit and correct it or add notes. All changes will be seen only by you. Learn more »
launch autoscroll
font size
0
reset
how to read this tab
guitar tuner
backing track
0:00
0:00
edit
Autoscroll
slow
fast
+/-
esc
set tempo
stop
Author
Unregistered
Band : Tool
Album: Lateralus
Track: 9
Song : Lateralus

Part : Guitar
Tuning: drop D

Tabbed: Nolan Venhola
Email : nolan@tooltabs.net
Visit : Tooltabs.net

    
(clean, delay)

e|---------------------------|
B|---------------------------|
G|----------5----------------|
D|----7-5h7----7--7-5h7-5-0--| 
A|---------------------------|
E|--0------------------------|(x3)

e|-------------------------------------------|
B|-------------------------------------------|
G|----------5--------------------------------|
D|----7-5h7----7--7-5h7-5-0-----7------7-----|
A|-------------------------------------------|
E|--0-------------------------5------3-------|(x8)

e|----------------------------------------------------------------------|
B|----------------------------------------------------------------------|
G|----------------------------------------------------------------------|
D|--0-0-x-0-0-x-0-5-5-5-0-3--3-3-x-3-3-x-3-55-3-0-3-5-5-5--x-5-3\10-12--| 
A|--0-0-x-0-0-x-0-5-5-5-0-3--3-3-x-3-3-x-3-55-3-0-3-5-5-5--x-5-3\10-12--|
E|--0-0-x-0-0-x-0-5-5-5-0-3--3-3-x-3-3-x-3-55-3-0-3-5-5-5--x-5-3\10-12--|(x3)

e|------------------------------------------------------------------------|
B|------------------------------------------------------------------------|
G|------------------------------------------------------------------------|
D|--0-0-x-0-0-x-0-5-5-5-0-3--3-3-x-3-3-x-3-55-3-0-3-5-5-5--x-5-3\10-12-0--|
A|--0-0-x-0-0-x-0-5-5-5-0-3--3-3-x-3-3-x-3-55-3-0-3-5-5-5--x-5-3\10-12-0--|
E|--0-0-x-0-0-x-0-5-5-5-0-3--3-3-x-3-3-x-3-55-3-0-3-5-5-5--x-5-3\10-12-0--|

*rest for 8 bars*

e|---------------------------------------|
B|---------------------------------------|
G|---------------------------------------|
D|--7-5-3-0--0-3-3-3-3-0-0-0-0--5-5-5-5--| 
A|--7-5-3-0--0-3-3-3-3-0-0-0-0--5-5-5-5--|
E|--7-5-3-0--0-3-3-3-3-0-0-0-0--5-5-5-5--|(x7)

    pm - - - - - - - - - - - - - - - -|

e|---------------------------------------------------------|
B|---------------------------------------------------------|
G|---------------------------------------------------------|
D|--7-5-3-0--0-3-3-3-3-0-0-0-0--5-5-5-5--5-5-5-5--5-5-5-5--|
A|--7-5-3-0--0-3-3-3-3-0-0-0-0--5-5-5-5--5-5-5-5--5-5-5-5--|
E|--7-5-3-0--0-3-3-3-3-0-0-0-0--5-5-5-5--5-5-5-5--5-5-5-5--|

    pm - - - - - - - - - - - - - - - - - - - - |

e|----------------------------------------------------------------------|
B|----------------------------------------------------------------------|
G|----------------------------------------------------------------------|
D|--0-0-x-0-0-x-0-5-5-5-0-3--3-3-x-3-3-x-3-55-3-0-3-5-5-5--x-5-3\10-12--|
A|--0-0-x-0-0-x-0-5-5-5-0-3--3-3-x-3-3-x-3-55-3-0-3-5-5-5--x-5-3\10-12--|
E|--0-0-x-0-0-x-0-5-5-5-0-3--3-3-x-3-3-x-3-55-3-0-3-5-5-5--x-5-3\10-12--|(x2)

e|---------------------------------------------------------------------|
B|--3-3--3-3----8-8-8---6--6-6--6-6------------------------------------|
G|--2-2--2-2----7-7-7---5--5-5--5-5------------------------------------|
D|--0-0--0-0--0-5-5-5-0-3--3-3---3-3--3-55-3-0-3-5-5-5--x-5-3-3h5-3-0--|
A|--0-0--0-0--0-5-5-5-0-3--3-3---3-3--3-55-3-0-3-5-5-5--x-5-3-3h5-3-0--|
E|--0-0--0-0--0-5-5-5-0-3--3-3---3-3--3-55-3-0-3-5-5-5--x-5-3-3h5-3-0--|

*rest for 8 bars*

e|---------------------------------------|
B|---------------------------------------|
G|---------------------------------------|
D|--7-5-3-0--0-3-3-3-3-0-0-0-0--5-5-5-5--|
A|--7-5-3-0--0-3-3-3-3-0-0-0-0--5-5-5-5--|
E|--7-5-3-0--0-3-3-3-3-0-0-0-0--5-5-5-5--|(x7)

    pm - - - - - - - - - - - - - - - -|

e|-------------------------------------------------|
B|-------------------------------------------------|
G|-------------------------------------------------|
D|--7-5-3-0--0-3-3-3-3-0-0-0-0--5-5-5-5---5-5-5-5--|
A|--7-5-3-0--0-3-3-3-3-0-0-0-0--5-5-5-5---5-5-5-5--|
E|--7-5-3-0--0-3-3-3-3-0-0-0-0--5-5-5-5---5-5-5-5--|

    pm - - - - - - - - - - - - - - - -|

e|----------------------------------------------------------------------|
B|----------------------------------------------------------------------|
G|----------------------------------------------------------------------|
D|--0-0-x-0-0-x-0-5-5-5-0-3--3-3-x-3-3-x-3-55-3-0-3-5-5-5--x-5-3\10-12--|
A|--0-0-x-0-0-x-0-5-5-5-0-3--3-3-x-3-3-x-3-55-3-0-3-5-5-5--x-5-3\10-12--|
E|--0-0-x-0-0-x-0-5-5-5-0-3--3-3-x-3-3-x-3-55-3-0-3-5-5-5--x-5-3\10-12--|

e|------------------------------------------------------------------|
B|--3-3--3-3----8-8-8---6--6-6--6-6---------------------------------|
G|--2-2--2-2----7-7-7---5--5-5--5-5---------------------------------|
D|--0-0--0-0--0-5-5-5-0-3--3-3--3-3--3-55-3-0-3-5-5-5--x-5-3\10-12--|
A|--0-0--0-0--0-5-5-5-0-3--3-3--3-3--3-55-3-0-3-5-5-5--x-5-3\10-12--|
E|--0-0--0-0--0-5-5-5-0-3--3-3--3-3--3-55-3-0-3-5-5-5--x-5-3\10-12--|


 1st solo (w/wah, starts closed, move gradually to open)

e|------------|
B|------------|
G|------------|
D|--0--10-12--| 
A|------------|
E|------------|(x7)

e|---------------------------------------------------------|
B|---------------------------------------------------------|
G|--9h10p9-0-----9h10h9-0---------9h10p9-0-5-4--5-0-2\7~---|
D|-----------7------------7-5-3----------------------------|
A|---------------------------------------------------------|
E|---------------------------------------------------------|

e|-----------------------------------------------------------------------------|
B|-----------------------------------------------------------------------------|
G|--9h10h9-0------------9h10p9-0-5-4--5-0-2--(rock wah back/forth)--/-5h7p5p0--|
D|-----------7-5-3\7~----------------------------------------------------------|
A|-----------------------------------------------------------------------------|
E|-----------------------------------------------------------------------------|


e|---------------------|
B|---------------------|
G|---------------------|
D|--0-10-12-12-10-12---| 
A|--0-10-12-12-10-12---|
E|--0-10-12-12-10-12---|(x2)

e|----------------|
B|----------------|
G|----------------|
D|--12-12-12-12---|(x4)
A|--12-12-12-12---|
E|--12-12-12-12---|

*rest, 8 bars*

(clean, delay)

e|-----------------------------|
B|-----------------------------|
G|-----------------------------|
D|----7----7----7--------------|
A|-----------------------------|
E|--5----3----0----------------|

e|-----------------------------|
B|-----------------------------|
G|-----------------------------|
D|----7----7----7--5h7---------|
A|-----------------------------|
E|--5----3----0----------------|

e|-----------------------------|
B|-----------------------------|
G|---------------------5-------|
D|----7----7----7--5h7---7-----|
A|-----------------------------|
E|--5----3----0----------------|

e|-------------------------------------|
B|-------------------------------------|
G|---------------------5---------------|
D|----7----7----7--5h7---7--7-5h7-5-0--|
A|-------------------------------------|
E|--5----3----0------------------------|(x5)

e|---------------------------|
B|---------------------------|
G|-----------5---------------|
D|----7--5h7---7--7-5h7-5-0--|
A|---------------------------|
E|--0------------------------|(x2)

e|---------------------------------|
B|---------------------------------|
G|---------------------------------|
D|--5-7--3-7--0-7-5h7-3-7-5h7-5-0--|
A|--5----3----0-------3------------|
E|--5----3----0-------3------------|

e|-------------------------------|
B|-------------------------------|
G|-------------------------------|
D|--5-7--3-7--0-7-5h7-3-7-\-10---|
A|--5----3----0-------3-----10---|
E|--5----3----0-------3-----10---|

e|-------------|
B|-------------|
G|-------------|
D|--5----3-----|
A|--5----3-----|
E|--5----3-----|


(distortion)


2nd solo (w/wah, this is a solo you have to 'feel' to play properly)

(first note: wah starts open (bass), gradually going to close (treble),
             then back to open, rock the wah)
(second note: wah is closed)


e|---------------------------------------------------|
B|---------------------------------------------------|
G|--(tremolo pick)-----------------------------------|
D|------------------12~~~bbbb~~~~--///pick scrape//--|
A|--12~~~~~~~~~~~~-----------------------------------|
E|---------------------------------------------------|

e|---------------------------------------------------|
B|---------------------------------------------------|
G|---------------------------------------------------|
D|--12~~~--12-10--5-3--5--3---5-3--5--3--0h3h5-5b----|
A|---------------------------------------------------|
E|---------------------------------------------------|


e|-------------|
B|-------------|
G|-------------|
D|--5----3-----|
A|--5----3-----|
E|--5----3-----|

e|---------------|
B|---------------|
G|---------------|
D|--0--0-0-0-0---|
A|--0--0-0-0-0---|
E|--0--0-0-0-0---|(x4)

e|-----------|
B|-----------|
G|-----------|
D|--x-0--0---|
A|--x-0--0---|
E|--x-0--0---|(x4)

e|-------------------------------------------------------------|
B|--15-15--13-13--15-15--18-18----15-15--13-13--18-18--15-15---|
G|--14-14--12-12--14-14--17-17----14-14--12-12--17-17--14-14---|
D|--12-12--10-10--12-12--15-15----12-12--10-10--15-15--12-12---|
A|--12-12--10-10--12-12--15-15----12-12--10-10--15-15--12-12---|
E|--12-12--10-10--12-12--15-15----12-12--10-10--15-15--12-12---|

e|-----------|
B|-----------|
G|-----------|
D|--x-5--5---|(x7)
A|--x-5--5---|
E|--x-5--5---|

e|-----------|
B|-----------|
G|-----------|
D|--x-3------|
A|--x-3------|
E|--x-3------|

e|--------------------------------|
B|--------------------------------|
G|--------------------------------|
D|--0--3--0--3-3-3--0--3-3--3--0--| 
A|--0--3--0--3-3-3--0--3-3--3--0--|
E|--0--3--0--3-3-3--0--3-3--3--0--|(x4)
              nh -|     nh-|

e|------------------|
B|------------------|
G|--7~--------5-----|
D|-----3-3--5-------|
A|------------------|
E|--------------0---|

  ph - - - - - -|

e|--------------------|
B|--------------------|
G|------------5-------|
D|--7~-3-3--5---------| 
A|--------------------|
E|--------------0-----|(x5)

  ph - - - - - -|

e|------------------|
B|------------------|
G|--7~--------5-----|
D|-----3-3--5-------|
A|------------------|
E|--------------0---|(x4)

  ph - - - - - -|

e|----------------------------------------------|
B|----------------------------------------------|
G|--7---------5---------------------------------|
D|--0--3-3--5---5-----5---3----10---12--0-------|
A|--0-----------------5---3----10---12--0-------|
E|--------------------5---3----10---12--0-------|
      ph - - - -|

************************************

| x  Dead note
| h  Hammer-on
| p  Pull-off
| b  Bend
| /  Slide up
| \  Slide down
| ~  Vibrato
| nh natural harmonic 
| pm palm mutex muted string
| ph pinch harmonic

************************************

            
            
Suggest correction
Creating personal tab
Creating personal tab
You can edit any tab online and save it as your Personal.

You can edit, replace or remove any tab part or add personal notes – all changes will be seen only by you.

Personal tabs can be accessed anytime from any device, even offline.
Learn more »
comments
print report bad tab
17 comments total. Showing first comments.
0 reply
BtyHunterCubby 10 Mar 31, 2002 07:00 PM

hey, awesome tab, good work man, except for a few things, it sounds a hell of a lot better than some of the other tabs i've seen for this, and you made the solos easy! good work

0 reply
nobodys_tool 0 Apr 07, 2002 08:00 PM

one good f**kin' tab

0 reply
mrcran 0 Apr 28, 2002 08:00 PM

Theres a couple of things that you missed and had to fix, but you did a good job on trying to peice it together.

guest
Wanna post a correction for this tab? Suggest correction