Oops, an error
Loading. Please wait.

Lateralus Tab

version 2
version 2
by Tool
5,013 views 3 this week
3 commentsread comments
1 2 3 4 5
worth learning
x 7
add to favorites
launch autoscroll
font size
0
reset
how to read this tab
guitar tuner
Tab Pro tools
  • play this tab
  • loop segment
  • change instrument
  • show fretboard
  • metronome
×
Best way to learn
"Lateralus"
Autoscroll
slow
fast
+/-
esc
set tempo
stop
Contributor
Tabbers playing skills
tza
advanced ++
Lateralis-Tool
Lateralus

Drop D
D A D G B E

( )- pinch harmonic

Intro: w/ delay

x2
e-----------------------------------------------------------------
b-------------1-----------------------------1---------------------
g---2---0h2-------2----0h2-0------2---0h2-------2----0h2-0--------
d----------------------------0-----------------------------0------
a-----------------------------------------------------------------
d-0-----------------------------0---------------------------------

0:17

x6
e-----------------------------------------------------------------
b-------------------------------------------1---------------------
g-------2-----------2-------------2---0h2-------2----0h2-0--------
d----------------------------------------------------------0------
a-----------------------------------------------------------------
d-5-----------3-----------------0---------------------------------

e-----------------------------------------------------------------
b-----------------------------------------------------------------
g-------2-----------2---------------------------------------------
d-----------------------------------------------------------------
a-----------------------------------------------------------------
d-5-----------3---------------------------------------------------

Fig 1.

e-----------------------------------------------------------------
b-----------------------------------------------------------------
g-----------------------------------------------------------------
d-0---0---0-0---0---0-5-5-5-3-3-0-3---3---3-3---3---0-5-5-5-0-3-5-
a-0---0---0-0---0---0-5-5-5-3-3-0-3---3---3-3---3---0-5-5-5-0-3-5-
d-0---0---0-0---0---0-5-5-5-3-3-0-3---3---3-3---3---0-5-5-5-0-3-5-

1st 2 endings, then >
e---------------------------------------|-------------------------
b---------------------------------------|-------------------------
g---------------------------------------|-------------------------
d-5-5---5-5---3----10----12-------------|-3----3h5----3-----------
a-5-5---5-5---3----10----12-------------|-3----3h5----3-----------
d-5-5---5-5---3----10----12-------------|-3----3h5----3-----------

Verses 1 and 2
No Gtr

Bass arr for gtr
1:51, 3:10

g-----------------5--------------------------7--------------------
d-0-----------3-----------0--------------5------------------------
a-----0------------------------0----------------------------------
d---------0------------------------0------------------------------

...as below so above and beyond...

pm
e-----------------------------------------------------------------
b-----------------------------------------------------------------
g-----------------------------------------------------------------
d-----------------------------------------------------------------
a-----------------------------------------------------------------
d-0--0--0--0----0--3--3--3--3--0--0--0--0----0--5--5--5--5--------

Interlude:

e-----------------------------------------------------------------
b-----------------------------------------------------------------
g-----------------------------------------------------------------
d-----------------------------------------------------------------
a-----------------------------------------------------------------
d-7--5--3--0----0--3--3--3--3--0--0--0--0----0--5--5--5--5--------

Chorus: Fig 1.

Guitar Solo: w/ wah as filter, and delay

e-----------------------------------------------------------------
b-----------------------------------------------------------------
g----5--7-----5--7-----5--7-----5--7-----5--7----9h10-9p7---------
d-0--------0--------0--------0--------0--------0----------7~~~~~--
a-----------------------------------------------------------------
d-----------------------------------------------------------------

e-----------------------------------------------------------------
b-----------------------------------------------------------------
g---9h10p9-0-------------------9h10p9-0-5---4----5p0--------------
d-0----------7\5-3~~~~~~~~~~-0-----------------------7~~~~-12~~~--
a-----------------------------------------------------------------
d-----------------------------------------------------------------

e-----------------------------------------------------------------
b-----------------------------------------------------------------
g---------9h10p9-0-------------------9h10p9-0---------------------
d-12~~~-0----------7\5-3~~~~~-7~~~~~----------10----9---10p0-7----
a-----------------------------------------------------------------
d-----------------------------------------------------------------

Verse:  ...feed my will to feel this moment...

e-----------------------------------------------------------------
b-----------------------------------------------------------------
g-------------------------------------------------------------0---
d-7~~~~-7~~~~-7~~~~-7---7--7-7-7----7--7-7--7--7/12--10h12p10-----
a-----------------------------------------------------------------
d-----------------------------------------------------------------

...reaching out to embrace the random...

e-----------------------------------------------------------------
b-----------------------------------------------------------------
g-----------------------------------------------------------------
d-0---10---12---0-0---10---12---0-0---10---12---0-0---10---12-----
a-0---10---12---0-0---10---12---0-0---10---12---0-0---10---12-----
d-0---10---12---0-0---10---12---0-0---10---12---0-0---10---12-----

e-----------------------------------------------------------------
b-3------3--------3-3-3-3------3------3------3-3-3-3--------------
g-2------2--------2-2-2-2------2------2------2-2-2-2--------------
d-0------0--------0-0-0-0------0------0------0-0-0-0--------------
a-0------0--------0-0-0-0------0------0------0-0-0-0--------------
d-0------0--------0-0-0-0------0------0------0-0-0-0--------------

4:48
bass arr. for gtr
e-----------------------------------------------------------------
b-----------------------------------------------------------------
g-----------------------------------------------------------------
d-----------------------------------------------------------------
a-----------------------------------------------------------------
d-0-0-0-0----0-0-0-0----0-0-0-0----0-0-0-0----0-0-0-0----0-0-0-0--
5:04

e-----------------------------------------------------------------
b-------------------------------------------1---------------------
g-------2-----------2-------------2---0h2-------2----0h2-0--------
d----------------------------------------------------------0------
a-----------------------------------------------------------------
d-5-----------3-----------------0---------------------------------

... to swing on the spiral to...

e-----------------------------------------------------------------
b-----------------------------------------------------------------
g-------2-----------2-------------2--0h2p0------2--0h2p0----------
d--------------------------------------------------------0--------
a-5-----------3-----------------0-------------3-------------------
d-5-----------3-----------------0-------------3-------------------

e-----------------------------------------------------------------
b-----------------------------------------------------------------
g-------2-----------2-------------2--0h2p0------------------------
d------------------------------------------0----------------------
a-5-----------3-----------------0---------------------------------
d-5-----------3-----------------0---------------------------------

e-----------------------------------------------------------------
b-----------------------------------------------------------------
g-----------------------------------------------------------------
d-3--3--10--10--5-------------3-----------------------------------
a-3--3--10--10--5-------------3----------x\\\\--------------------
d-3--3--10--10--5-------------3----------x\\\\--------------------

2nd Gtr Solo: w/ wah and delay

e-----------------------------------------------------------------
b-----------------------------------------------------------------
g-222222222222222-222222222222222-2b-22222222222-2rb-222222222222-
d-----------------------------------------------------------------
a-----------------------------------------------------------------
d-----------------------------------------------------------------

e-----------------------------------------------------------------
b-----------------------------------------------------------------
g-222222222222222-222222222222222-7~~~~~~~~~-7777777777777-77777--
d-----------------------------------------------------------------
a-----------------------------------------------------------------
d-----------------------------------------------------------------

e-----------------------------------------------------------------
b-----------------------------------------------------------------
g-7777777777777-777777777777-7~~~~~~-7~~~~~~~-7~~~~~~~~-7~~~~~~~~-
d-----------------------------------------------------------------
a-----------------------------------------------------------------
d-----------------------------------------------------------------

e-----------------------------------------------------------------
b-----------------------------------------------------------------
g-7~~~~-5~~~~-----------------------------------------------------
d---------------5br-p3--5b---3-----5br-p3--5b---3----3h5--h6--5-3-
a-------------------------------------------------3-----------5-3-
d-------------------------------------------------------------5-3-

7:17

e-----------------------------------------------------------------
b-----------------------------------------------------------------
g-----------------------------------------------------------------
d-0---0--x-0---0-x-0---0--x-0---0-x-0---0--x-0---0-x-0---0--x-0---
a-0---0--x-0---0-x-0---0--x-0---0-x-0---0--x-0---0-x-0---0--x-0---
d-0---0--x-0---0-x-0---0--x-0---0-x-0---0--x-0---0-x-0---0--x-0---

8:03

e-----------------------------------------------------------------
b-15----15--13----13----15----15--18----18--15----13----18----15--
g--x-----x---x-----x-----x-----x---x-----x---x-----x-----x-----x--
d-12----12--12----12----12----12--15----15--12----12----15----12--
a--x-----x---x-----x-----x-----x---x-----x---x-----x-----x-----x--
d--0-----0---0-----0-----0-----0---0-----0---0-----0-----0-----0--

e-----------------------------------------0----0---0-0--0---0-0---
b-----------------------------------------0----0---0-0--0---0-0---
g-----------------------------------------0----0---0-0--0---0-0---
d-5----5----5---5-----5----5----5---5-----5----5---5-5--5---5-5---
a-5----5----5---5-----5----5----5---5-----5----5---5-5--5---5-5---
d-5----5-0--5---5-0-0-5----5-0--5---5-0-0-5----5---5-5--5---5-5---

8:20

e-----------------------------------------------------------------
b-------------------------3-----3---------------------------------
g-2-----------2-x-x-x-x-x-2-----2-x-x-x-x-------x-2-x-x-x---------
d-0-----3-----0-x-x-x-x-x-0-----0-x-x-x-x-3-----x-0-x-x-x---------
a-0-----3-----0-x-x-x-x-x-0-----0-x-x-x-x-3-----x-0-x-x-x---------
d-0-----3-----0-x-x-x-x-x-0-----0-x-x-x-x-3-----x-0-x-x-x---------

Outro: 8:36

x10
e-----------------------------------------------------------------
b-----------------------------------------------------------------
g(7)~~~~------------(5)------(7)~~~~------------(5)---------------
d---------------5---------------------------5---------------------
a--------8---------------------------8----------------------------
d-------------------------0----------------------------0----------

e-----------------------------------------------------------------
b-----------------------------------------------------------------
g-----------------------------------------------------------------
d(0)---------------(5)-------5-----3-----------10---12----0-------
a(5)---(3)-(3)-(5)-----(5)---5-----3-----------10---12----0-------
d----------------------------5-----3-----------10---12----0-------

that’s it
fuck, this is a long ass song....but every tool song
on lateralus is a master piece......

trevor jones
timmy91199@yahoo.ca
comments
print report bad tab
3 comments total.
0 reply
TabMat wrote on April 1 2002, 12:00 am

check out TabMat's Pearl Jam's Black,please

0 reply
Ors Aaiom wrote on May 17 2002, 12:00 am

Great job

0 reply
tOoL wrote on September 24 2003, 12:00 am

close, but no cigar

I want to post or [tab]
guest
You may want to rate the tab now too:
select rating
Please do not post tabs as comments. Select "correction" instead!