Oops, an error
Loading. Please wait.

Lateralus bass

version 4
version 4

Whole song

by Tool
187 views 3 this week
no commentswrite comment
1 2 3 4 5
3 more votes to show rating
add to favorites
×
Save as Personal and add changes to this tab that will be seen only by you. Learn more ›
×
You can save this tab as Personal to edit and correct it or add notes. All changes will be seen only by you. Learn more »
launch autoscroll
font size
0
reset
guitar tuner
backing track
0:00
0:00
edit
Autoscroll
slow
fast
+/-
esc
set tempo
stop
About this tab version
I think it is the most complete and accurate tab on this site. Was this info helpful? Yes No
-----------------------------------------------------------------------------
                             Lateralus - Tool
-----------------------------------------------------------------------------

Prologue:

G|---------------------------------------------------------------------------|
D|-0-0-0-0-------------------------------------------------------------------|
A|---------------------------------------------------------------------------|
D|---------------------------------------------------------------------------|(fading in
til Intro)

Intro:

G|---------------------------------------------------------------------------|
D|---------------------------------------------------------------------------|
A|----------------------------------------------3-5--------------------------|
D|-0-0-x0-0-x5555-3-0-3-3-x3-3-x5530-3/5-5-x5-3------------------------------|(x2)

G|---------------------------------------------------------------------------|
D|---------------------------------------------------------------------------|
A|---------------------------------------------------------------------------|
D|-0-0-x0-0-x5555-3-0-3-3-x3-3-x5530-3/5-5-x5-3h5p3-0------------------------|


Verse 1:

G|---------------------------------------------------------------------------|
D|-----------10------------12------------------------------------------------|
A|-5~--0~--8----5~--0~--10---------------------------------------------------|
D|---------------------------------------------------------------------------|(x8)

Pre-chorus:

G|---------------------------------------------------------------------------|
D|---------------------------------------------------------------------------|
A|---------------------------------------------------------------------------|
D|-7-5-3-0-033330000-0-5555-7-5-3-0-033330000-0-5555-------------------------|

G|---------------------------------------------------------------------------|
D|---------------------------------------------------------------5-5-5-5-----|
A|---------------------------------------------------------------------------|
D|-7-5-3-0-033330000-0-5555-7-5-3-0-033330000-0-5-5-5-5--5-5-5-5-------------|

Chorus:

G|---------------------------------------------------------------------------|
D|---------------------------------------------------------------------------|
A|----------------------------------------------3-5--------------------------|
D|-0-0-x0-0-x5555-3-0-3-3-x3-3-x5530-3/5-5-x5-3------------------------------|(x2)

G|---------------------------------------------------------------------------|
D|---------------------------------------------------------------------------|
A|---------------------------------------------------------------------------|
D|-0-0-x0-0-x5555-3-0-3-3-x3-3-x5530-3/5-5-x5-3h5p3-0------------------------|

Verse 2:

G|---------------------------------------------------------------------------|
D|----------10-----------12--------------------------------------------------|
A|-----0~-8--------0~-10-----------------------------------------------------|
D|-12\---------12\-----------------------------------------------------------|(x8)

Pre chorus 2:

G|---------------------------------------------------------------------------|
D|---------------------------------------------------------------------------|
A|---------------------------------------------------------------------------|
D|-7-5-3-0-033330000-0-5555-7-5-3-0-033330000-0-5555-------------------------|

G|---------------------------------------------------------------------------|
D|------------------------------------------------------5-5-5-5--------------|
A|---------------------------------------------------------------------------|
D|-7-5-3-0-033330000-0-5555-7-5-3-0-033330000-0-5-5-5-5----------------------|

Chorus 2:

G|---------------------------------------------------------------------------|
D|---------------------------------------------------------------------------|
A|----------------------------------------------3-5--------------------------|
D|-0-0-x0-0-x5555-3-0-3-3-x3-3-x5530-3/5-5-x5-3------------------------------|(x2)

Solo 1:

G|---------------------------------------------------------------------------|
D|---------------------------------------------------------------------------|
A|----------------------------------------------3-5--------------------------|
D|-0-0-x0-0-x5555-3-0-3-3-x3-3-x5530-3/5-5-x5-3------------------------------|(x4)

G|---------------------------------------------------------------------------|
D|---------------------------------------------------------------------------|
A|--------3-5----------------------------------------------------------------|
D|-0-0-x0--------------------------------------------------------------------|

Silent part:

G|---------------------------------------------------------------------------|
D|-0-0-0-0-------------------------------------------------------------------|
A|---------------------------------------------------------------------------|
D|---------------------------------------------------------------------------|

At some point the guitar kicks in with some clean notes. During that you can play:

G|---------------------------------------------------------------------------|
D|-5-5-5-5--5-5-5-5--3-3-3-3--3-3-3-3--0-0-0-0--0-0-0-0----------------------|
A|---------------------------------------------------------------------------|
D|---------------------------------------------------------------------------|

At 06:20, after all those 4 notes repetition, you do:

G|-7~----5~----2~----5~--12~-------------------------------------------------|
D|-5~----3~----0~----3~--10~-------------------------------------------------|
A|---------------------------------------------------------------------------|
D|---------------------------------------------------------------------------|(x2)

G|-7~----5~----------------~-------------------------------------------------|
D|-5~----3~------------------------------------------------------------------|
A|---------------------------------------------------------------------------|
D|---------------------------------------------------------------------------|

After that is the part from 06:40:

G|---------------------------------------------------------------------------|
D|---------------------------------------------------------------------------|
A|---------------------------------------------------------------------------|
D|-5-5-x5-5-x3-3-x-335-0-0-x0-0-x3-3/10-10-10--------------------------------|(x4)

G|---------------------------------------------------------------------------|
D|---------------------------------------------------------------------------|
A|---------------------------------------------------------------------------|
D|-5~-55-5-5-5-3~-33-3-3-3-0~------------------------------------------------|

Loud part:

G|---------------------------------------------------------------------------|
D|---------------------------------------------------------------------------|
A|---------------------------------------------------------------------------|
D|-5b-5b-5b-5b-5b-5b-5b-5b--12b-10b-12b-15b--12b-10b-15b-12b-----------------|(x3)

G|---------------------------------------------------------------------------|
D|---------------------------------------------------------------------------|
A|---------------------------------------------------------------------------|
D|-5b-5b-5b-5b-5b-5b-5b-5b---------------------------------------------------|

"Spiral out" part:

G|---------------------------------------------------------------------------|
D|-7-10-7-7-x-7-7-x-7-7-x----------------------------------------------------|
A|-5-8--5-5-x-5-5-x-5-5-x----------------------------------------------------|
D|---------------------------------------------------------------------------|(x4)

Outro:

G|-7~---------------------------------7~-------------------------------------|
D|-0~---------------------------------0~-------------------------------------|
A|-5~---------------------------3~-5~-5~-------------------------------------|
D|-0~-(x7)--0~--3~--5~---5~-3~--------0~-------------------------------------|

            
            
Suggest correction
Creating personal tab
Creating personal tab
You can edit any tab online and save it as your Personal.

You can edit, replace or remove any tab part or add personal notes – all changes will be seen only by you.

Personal tabs can be accessed anytime from any device, even offline.
Learn more »
Give kudos to tab author, rate the tab!
1 2 3 4 5
comments
print report bad tab
guest
You may want to rate the tab now too:
select rating
Wanna post a correction for this tab? Suggest correction