Oops, an error
Loading. Please wait.

Lateralus tab

version 5
version 5
by Tool
2,598 views 1 this week
4 commentsread comments
1 2 3 4 5
1 last vote to show rating
add to favorites
×
Save as Personal and add changes to this tab that will be seen only by you. Learn more ›
×
You can save this tab as Personal to edit and correct it or add notes. All changes will be seen only by you. Learn more »
launch autoscroll
font size
0
reset
how to read this tab
guitar tuner
backing track
0:00
0:00
edit
Autoscroll
slow
fast
+/-
esc
set tempo
stop
Band - Tool
Song - Lateralus
Album - Lateralus (2001)

Gtr I (D A D G B E) - 'Adam Jones - Rhythm w/slightly diry tone and delay'
Gtr II (D A D G B E) - 'Adam Jones - Rhythm w/dist'
Gtr III (D A D G B E) - 'Adam Jones - Rhythm w/dist'
Gtr IV (D A D G B E) - 'Adam Jones - Lead w/dist'

Intro
    Q=114
   4/4
    Gtr I
    Q  Q  E Q  E   +E  Q.   E E E E  4x     Q  H.        Q  H.
||---------------|-------------------||-||-------------|----------|
||o------------1-|-(1)--------------o||-||o------------|----------|
||-----2--0h2----|-----2----0h2-0----||-||-----2-------|----2-----|
||---------------|----------------0--||-||-------------|----------|
||o--------------|------------------o||-||o------------|----------|
||--0------------|-------------------||-||--5----------|-3--------|


                                                 Gtr II
                                                   <
  Q  Q  E Q  E   +E  Q.   E E E E  6x Q  H.        Q  H.
|--------------|-------------------||------------|----------||
|------------1-|-(1)--------------o||------------|----------||
|-7--2--0h2----|-----2----0h2-0----||----2-------|----2-----||
|--------------|----------------0--||------------|----------||
|--------------|------------------o||------------|----------||
|-0------------|-------------------||-5----------|-3--------||


   Chorus
    Faster Q=164
    $
   3/4
    Gtrs II, III
    Q.   E E E   Q.   E E E   E E E E E E   Q.   E E E
||-------------|------------|-------------|------------|
||o------------|------------|-------------|------------|
||-------------|------------|-------------|------------|
||--0----0---0-|-0----0---0-|-5-5-5-3-3-0-|-3----3---3-|
||o-0----0---0-|-0----0---0-|-5-5-5-3-3-0-|-3----3---3-|
||--0----0---0-|-0----0---0-|-5-5-5-3-3-0-|-3----3---3-|
 |-Rhy Fig 1

                                          1.,2.           3.
  Q.   E E E   E E E E E E   E E E E Q    Q    Q   Q       Q  a Q  Q
|------------|-------------|------------|--------------||--------------||
|------------|-------------|------------|-------------o||--------------||
|------------|-------------|------------|--------------||--------------||
|-3----3---0-|-5-5-3-0-3-5-|-5-5---5-5--|-3--/10--12---||--3--3h5--3---||
|-3----3---0-|-5-5-3-0-3-5-|-5-5---5-5--|-3--/10--12--o||--3--3h5--3---||
|-3----3---0-|-5-5-3-0-3-5-|-5-5---5-5--|-3--/10--12---||--3--3h5--3---||
                                         end Rhy Fig 1-|

 Verse
 5/4
  Q  W          Wx7              W            W     4x
|-------------|--------------||-------------|-------||
|-------------|--------------||o------------|------o||
|-------------|--------------||-------------|-------||
|-0-----------|--------------||-------------|-------||
|-0-----------|--------------||o------------|------o||
|-0-----------|--------------||-------------|-------||


 Verse
  Gtr II
  PM-----------------------------------------
  E E E E E E E E E E   E E E E E E E E E E
|---------------------|---------------------|
|---------------------|---------------------|
|---------------------|---------------------|
|---------------------|---------------------|
|---------------------|---------------------|
|-0-0-0-0---0-3-3-3-3-|-0-0-0-0---0-5-5-5-5-|


 -----------------------------------------|
  E E E E E E E E E E   E E E E E E E E E E
|---------------------|----------------------|
|---------------------|----------------------|
|---------------------|----------------------|
|---------------------|----------------------|
|---------------------|----------------------|
|-0-0-0-0---0-3-3-3-3-|-0-0-0-0---0-5-5-5-5--|


  PM-----------------------------------------
  E E E E E E E E E E   E E E E E E E E E E
|---------------------|---------------------|
|---------------------|---------------------|
|---------------------|---------------------|
|---------------------|---------------------|
|---------------------|---------------------|
|-0-0-0-0---0-3-3-3-3-|-0-0-0-0---0-5-5-5-5-|
|-Riff A                        end Riff A-|

Riff A


   Interlude
                                     To Coda
    PM--------------------------------------|
    E E E E E E E E E E   E E E E E E E E E E  4x
||----------------------|----------------------||
||o---------------------|---------------------o||
||----------------------|----------------------||
||----------------------|----------------------||
||o---------------------|---------------------o||
||--7-5-3-0---0-3-3-3-3-|-0-0-0-0---0-5-5-5-5--||


              D.S. al Coda
                          &
 3/4
     PM----|
  Q  E E E E   Q  E E E E    Q  E E E E
|------------|------------||------------||
|------------|------------||------------||
|------------|------------||------------||
|------------|----5-5-5-5-||----5-5-5-5-||
|------------|----5-5-5-5-||----5-5-5-5-||
|----5-5-5-5-|----5-5-5-5-||----5-5-5-5-||


   Chorus
   Rhy Fig 1 x 1.75


                   Guitar Solo
  2.
  Gtr IV
  H       a  Q      Q   Q  Q    Q  Q  Q    Q  Q  Q    Q  Q  Q    Q  Q  Q
|----------------||-----------|----------|----------|----------|-----------|
|----------------||-----------|----------|----------|----------|-----------|
|---------5h=7---||-----5--7--|----5--7--|----5--7--|----5--7--|----5--7---|
|---------0-(0)--||-0---------|-0--------|-0--------|-0--------|-0---------|
|----------------||-----------|----------|----------|----------|-----------|
|----------------||-----------|----------|----------|----------|-----------|
|
| Gtrs II, III
| Q  a Q     Q      E E Q  Q    W          W          W          W
|----------------||-----------|----------|----------|----------|-----------|
|----------------||-----------|----------|----------|----------|-----------|
|----------------||-----------|----------|----------|----------|-----------|
|-3--3h5-----3---||-0---------|----------|----------|----------|-----------|
|-3--3h5-----3---||-0---------|----------|----------|----------|-----------|
|-3--3h5-----3---||-0---------|----------|----------|----------|-----------|


                                      ~~~~~~~~~~~~~~~~~~~~~
  Q  Q  Q    Q  Q  Q    Q  E  E E E   H.        +H     +E  E   E  E E E E E
|----------|----------|-------------|---------|--------------|--------------|
|----------|----------|-------------|---------|--------------|--------------|
|----5--7--|----5--7--|----9h10-9p7-|---------|--------------|-9h10p9-0-----|
|-0--------|-0--------|-0-----------|-7-------|-(7)----(7)-0-|----------7s5-|
|----------|----------|-------------|---------|--------------|--------------|
|----------|----------|-------------|---------|--------------|--------------|


  ~~~~~~~~~~~~~~                                        ~~~~~~~~~~~~~
  H.        +H     +E  E   E  E E E Q    +E  Q.   E E   H.        H.
|---------|--------------|-------------|--------------|--------|--------|
|---------|--------------|-------------|--------------|--------|--------|
|---------|--------------|-9h10p9-0-5--|-(5)-4----5p0-|--------|--------|
|-3-------|-(3)----(3)-0-|-------------|--------------|-7s=====|=12-----|
|---------|--------------|-------------|--------------|--------|--------|
|---------|--------------|-------------|--------------|--------|--------|


    ~~~~
   +H      +E  E   E  E E E E E   H.
|----------------|--------------|--------|
|----------------|--------------|--------|
|----------------|-9h10p9-0-----|--------|
|-(12)----(12)-0-|----------7s5-|-3s=====|
|----------------|--------------|--------|
|----------------|--------------|--------|


  H.        E  E E E  Q     +E  Q.    E E   H.
|---------|--------------|----------------|-------||
|---------|--------------|----------------|-------||
|---------|-9h10p9-0-----|----------------|-------||
|-7-------|----------10--|-(10)-9----10p0-|-7-----||
|---------|--------------|----------------|-------||
|---------|--------------|----------------|-------||


 Verse
  H.        +H.        +H.        +Q.   E E E
|---------|----------|----------|--------------|
|---------|----------|----------|--------------|
|---------|----------|----------|--------------|
|-7-------|-(7)------|-(7)------|-(7)---7-7-7--|
|---------|----------|----------|--------------|
|---------|----------|----------|--------------|


  Q.   E E E   Q.   E E E   +H     Q     Q   E  E  E E
|------------|------------|-----------|-----------------||
|------------|------------|-----------|-----------------||
|------------|------------|-----------|--------------0--||
|-7----7-7-7-|-7----7-7-7-|-(7)----7s=|=12--10h12p10----||
|------------|------------|-----------|-----------------||
|------------|------------|-----------|-----------------||


  Gtr II, III
   Q   Q   Q    E E  Q   Q    E E  Q   Q    E E  Q   Q
|-------------|-------------|-------------|-------------|
|-------------|-------------|-------------|-------------|
|-------------|-------------|-------------|-------------|
|--0--10--12--|-0-0-10--12--|-0-0-10--12--|-0-0-10--12--|
|--0--10--12--|-0-0-10--12--|-0-0-10--12--|-0-0-10--12--|
|--0--10--12--|-0-0-10--12--|-0-0-10--12--|-0-0-10--12--|


                                                  Slower Q=124
                                                     4/4
  Q.   E Q    E E E E Q    Q.   E Q    E E E E Q      W     8x
|-----------|------------|-----------|------------||--------||
|-3----3----|-3-3-3-3----|-3----3----|-3-3-3-3----||o------o||
|-2----2----|-2-2-2-2----|-2----2----|-2-2-2-2----||--------||
|-0----0----|-0-0-0-0----|-0----0----|-0-0-0-0----||--------||
|-0----0----|-0-0-0-0----|-0----0----|-0-0-0-0----||o------o||
|-0----0----|-0-0-0-0----|-0----0----|-0-0-0-0----||--------||


  Gtr I
  Q  H.        Q  H.        Q  H.        +W
|------------|------------|------------|--------|
|------------|------------|------------|--------|
|----2-------|----2-------|----2-------|-(2)----|
|------------|------------|------------|--------|
|------------|------------|------------|--------|
|-5----------|-3----------|-0----------|--------|


  Q  H.        Q  H.        Q  Q  E Q.     +W
|------------|------------|--------------|--------|
|------------|------------|--------------|--------|
|----2-------|----2-------|----2--0h2----|-(2)----|
|------------|------------|--------------|--------|
|------------|------------|--------------|--------|
|-5----------|-3----------|-0------------|--------|


                                               ~~~~~~~~~
  Q  H.        Q  H.        Q  Q  E Q  E   +E  Q.   +H
|------------|------------|--------------|-----------------|
|------------|------------|------------1-|-(1)-------------|
|----2-------|----2-------|----2--0h2----|-----2----(2)----|
|------------|------------|--------------|-----------------|
|------------|------------|--------------|-----------------|
|-5----------|-3----------|-0------------|-----------------|


  Q  H.        Q  H.        Q  Q  E Q  E   +E  Q.   E E E E
|------------|------------|--------------|------------------|
|------------|------------|------------1-|-(1)--------------|
|----2-------|----2-------|----2--0h2----|-----2----0h2-0p==|
|------------|------------|--------------|----------------0-|
|------------|------------|--------------|------------------|
|-5----------|-3----------|-0------------|------------------|
|-Rhy Fig 2                                    end Rhy Fig 2-|


Rhy Fig 2 x4



  Q  Q  E Q  E   +E  Q.   E E E E   Q  Q  E Q  E   +E  Q.   E E E E
|--------------|------------------|--------------|------------------|
|------------1-|-(1)--------------|------------1-|-(1)--------------|
|----2--0h2----|-----2----0h2-0---|----2--0h2----|-----2----0h2-0p==|
|--------------|----------------0-|--------------|----------------0-|
|--------------|------------------|--------------|------------------|
|-0------------|------------------|-0------------|------------------|


  Q  H.        Q  H.         Q  Q  E E Q    Q  Q  E E E  E
|------------|------------|---------------|-----------------|
|------------|------------|---------------|-----------------|
|----2-------|----2-------|-----2--0h2p0--|----2--0h2p0-----|
|------------|------------|---------------|-------------(0)-|
|-5----------|-3----------|-^0------------|-3---------------|
|-5----------|-3----------|-^0------------|-3---------------|


   Q  H.        Q  H.         Q  Q  E E Q
|-------------|------------|---------------|
|-------------|------------|---------------|
|-----2-------|----2-------|-----2--0h2p0--|
|-------------|------------|---------------|
|-/5----------|-3----------|-^0------------|
|-/5----------|-3----------|-^0------------|


  Q  Q    Q   Q    W          H    H
|----------------|----------|------------||
|----------------|----------|------------||
|----------------|----------|------------||
|-3--3--/10--10--|-5--------|-3----x\----||
|-3--3--/10--10--|-5--------|-3----x\----||
|-3--3--/10--10--|-5--------|-3----x\----||


 Guitar Solo
  Gtr IV
  TP         TP         TP       TP       TP
  W          W          H       +H       +W
|----------|----------|----------------|---------|
|----------|----------|----------------|---------|
|-2--------|-2--------|-2b3=====(2)----|-(2)r----|
|----------|----------|----------------|---------|
|----------|----------|----------------|---------|
|----------|----------|----------------|---------|


~~~~~~~~~~~~~~~~~~~~~~~~~~~~~~~~~~~TP
  W          W          W          W
|----------|----------|----------|------|
|----------|----------|----------|------|
|-2--------|-2--------|-2--------|-2----|
|----------|----------|----------|------|
|----------|----------|----------|------|
|----------|----------|----------|------|


                    TP        TP         TP
  Q  Q  H      +Q   H.        W          W
|------------|--------------|----------|-------|
|------------|--------------|----------|-------|
|-7--7--7----|-(7)--7-------|-7--------|-7\----|
|------------|--------------|----------|-------|
|------------|--------------|----------|-------|
|------------|--------------|----------|-------|


  TP ~~~~~~~~~~~~~
  Q  Q  Q  Q    Q  Q  +Q   S    +S  E   Q      H    S    +S  E
|-------------|-----------------------|------------------------|
|-------------|-----------------------|------------------------|
|-7--7--7--7--|-7--5--(5)-------------|------------------------|
|-------------|------------5pb6r(5)p3-|-5b5.5--3----5pb6r(5)p3-|
|-------------|-----------------------|------------------------|
|-------------|-----------------------|------------------------|


                       Gtr II
                                            |-3-|
  Q      E E S E S +E   E   W          H    Q Q Q
|-------------------------|----------|-------------||
|-------------------------|----------|-------------||
|-------------------------|----------|-------------||
|-5b5.5--3---3h5h6-(6)--5-|-5--------|-3----3-3-3--||
|----------3------------5-|-5--------|-3----3-3-3--||
|-----------------------5-|-5--------|-3----3-3-3--||


  Slower Q=84
 3/4
  E. S S S E +S  e S
|--------------------|
|--------------------|
|--------------------|
|-0--0---x-0-(0)-0-x-|
|-0--0---x-0-(0)-0-x-|
|-0--0---x-0-(0)-0-x-|
|-Rhy Fig 3        --|

Rhy Fig 3 x5

Rhy Fig 3 x16




  Gtrs I, II
   E.  S  +E   E  +S   E.    E.  S  +E    E  +S   E.
|-------------------------|--------------------------|
|-15--15-(15)-13-(13)-13--|-15--15-(15)-/18-(18)-18--|
|--x---x-------x-------x--|--x---x--------x-------x--|
|-12--12-(12)-10-(10)-10--|-12--12-(12)-/15-(15)-15--|
|--x---x-------x-------x--|--x---x--------x-------x--|
|--0---0--(0)--0--(0)--0--|--0---0--(0)---0--(0)--0--|


   E.  S  +E   E  +S   E.    E.  S  +E   E  +S   E.
|-------------------------|--------------------------|
|-15--15-(15)-13-(13)-13--|-18--18-(18)-15-(15)-15---|
|--x---x-------x-------x--|--x---x-------x-------x---|
|-12--12-(12)-10-(10)-10--|-15--15-(15)-12-(12)-12---|
|--x---x-------x-------x--|--x---x-------x-------x---|
|--0---0--(0)--0--(0)--0--|--0---0--(0)--0--(0)--0---|


  E. S E E +S  S S S   E. S E E +S  S S S
|--------------------|--------------------|
|--------------------|--------------------|
|--------------------|--------------------|
|-5--5---5-(5)-5-----|-5--5---5-(5)-5-----|
|-5--5---5-(5)-5-----|-5--5---5-(5)-5-----|
|-5--5-0-5-(5)-5-0-0-|-5--5-0-5-(5)-5-0-0-|


  E. S S S E +S  S S S   E. S S S E +E  S S
|----------------------|---------------------||
|-0--------0-(0)-0-0-0-|-0--0-0-0------------||
|-0--------0-(0)-0-0-0-|-0--0-0-0------------||
|-5--5-5-5-5-(5)-5-5-5-|-5--5-5-5-3-(3)-0-0--||
|-5--5-5-5-5-(5)---5-5-|-5--5-5-5-3-(3)-0-0--||
|-5--5-5-5-5-(5)---5-5-|-5--5-5-5-3-(3)-0-0--||


    Faster Q=164
    Q.   Q.     E E E E E E   E E E E E E   E. S E E E E  4x
||------------|-------------|-------------|---------------||
||o-----------|-------------|-3-3---------|--------------o||
||--2---------|-2-x-x-x-x-x-|-2-2-x-x-x-x-|----x-2-x-x-x--||
||--0----3----|-0-x-x-x-x-x-|-0-0-x-x-x-x-|-3--x-0-x-x-x--||
||o-0----3----|-0-x-x-x-x-x-|-0-0-x-x-x-x-|-3--x-0-x-x-x-o||
||--0----3----|-0-x-x-x-x-x-|-0-0-x-x-x-x-|-3----0-x-x-x--||


   Outro
    Gtr IV
     ~~~
     Q.   E +E  E   Q   Q   Q    8x
||----------------|--------------||
||o---------------|-------------o||
||--[7]-----------|----[5]-------||w/Riff B x2
||----------------|-5------------||
||o-------8-(8)-8-|-------------o||
||----------------|---------0----||
||-Riff B             end Riff B-|
|
|   Gtr II
|    Q.   E +E  E   Q   Q   E E  8x  Q.   E +E  E
||----------------|--------------||------------------|
||o---------------|-------------o||------------------|
||----------------|--------------||------------------|
||---0------------|--------------||--0---------------|
||o--0------------|-------------o||--0---------------|
||---0----0-(0)-0-|-0---0---0-0--||--0----0-(0)-0----|



  Q   Q   E E    Q.   E +E  E   Q   Q   E E
|-------------|---------------|-------------|
|-------------|---------------|-------------|
|-------------|---------------|-------------|
|-------------|---------------|-------------|
|-------------|---------------|-------------|
|-0---0---0-0-|--3----3-(3)-3-|-3---3---3-3-|


  Q.   E +E  E   Q  Q  Q    +H     Q
|--------------|----------|-----------|
|--------------|----------|-----------|
|--------------|----------|-----------|
|-5------------|----5-----|--------5--|
|-0----3-(3)-3-|-5-----5--|-(5)----5--|
|--------------|----------|--------5--|
|
| Q.   E +E  E   Q  Q  Q    +H     Q
|--------------|----------|-----------|
|--------------|----------|-----------|
|--------------|----------|-----------|
|--------------|----------|--------5--|
|--------------|----------|--------5--|
|-5----5-(5)-5-|-5--5--5--|-(5)----5--|


 4/4
  +E  Q.   +H        Q.    E  +Q   Q    +W
|-----------------|-------------------|--------*|
|-----------------|-------------------|--------*|
|-----------------|-------------------|--------*|
|-(5)-3----(3)----|-10----12-(12)--0--|-(0)----*|
|-(5)-3----(3)----|-10----12-(12)--0--|-(0)----*|
|-(5)-3----(3)----|-10----12-(12)--0--|-(0)----*|
|
| +E  Q.   +H        Q.    E  +Q   Q    +W
|-----------------|-------------------|--------*|
|-----------------|-------------------|--------*|
|-----------------|-------------------|--------*|
|-(5)-3----(3)----|-10----12-(12)--0--|-(0)----*|
|-(5)-3----(3)----|-10----12-(12)--0--|-(0)----*|
|-(5)-3----(3)----|-10----12-(12)--0--|-(0)----*|

            
            
Suggest correction
Creating personal tab
Creating personal tab
You can edit any tab online and save it as your Personal.

You can edit, replace or remove any tab part or add personal notes – all changes will be seen only by you.

Personal tabs can be accessed anytime from any device, even offline.
Learn more »
Give kudos to tab author, rate the tab!
1 2 3 4 5
comments
print report bad tab
4 comments total. Showing first comments.
0 reply
SplutterBrain 51 Nov 23, 2006 03:20 AM

Wow, a powertab export

0 reply
Maitinin 19,543 Nov 23, 2006 06:28 AM

isn't this is copied from here:
http://mikesguitarsite.co.uk/tabs/tool/lateralis.php
but great tab

0 reply
rmwaters3000 195 Nov 23, 2006 10:06 AM

Or else from the tooltabs.net website?
Its the exact same way they play it there.

guest
You may want to rate the tab now too:
select rating
Wanna post a correction for this tab? Suggest correction