Oops, an error
Loading. Please wait.

Lost Keys bass

version 1
version 1

Whole song

Interactive

by Tool
2,452 views 6 this week
4 commentsread comments
1 2 3 4 5
x 5
add to favorites
×
Save as Personal and add changes to this tab that will be seen only by you. Learn more ›
×
You can save this tab as Personal to edit and correct it or add notes. All changes will be seen only by you. Learn more »
launch autoscroll
font size
0
reset
guitar tuner
edit
Autoscroll
slow
fast
+/-
esc
set tempo
stop
Author
Difficulty
Band : Tool
Album: 10.000 Days
Track: 7
Song : Lost Keys (Blame Hofmann)

Part : Bass (but it's what the guitars does)
Tuning: drop D

Tabbed: Bernardo HIT (Brazil 31/10/2006)


00:30
---
g----------------------------------------------------------||4x
d—-----7--0*------10--0*------7--0-------10--0-------5--0--||
a---5----------8-----------5----------8----------/3--------||
d----------------------------------------------------------||


01:30
---
g-------------------------------------||3x
d—-----7--0*-------10--0------5--0----||
a---5-----------8---------/3----------||
d-------------------------------------||

01:50
---
g-----------------------------------------------------------||2x
d—-----7--0*------10--0*------7--0*-------10--0-------5--0--||
a---5----------8-----------5-----------8----------/3--------||
d-----------------------------------------------------------||

02:20
---
g-------------------------------------7------------------------||1x
d—-----7--0*-------10--0*-----7--0*---------10--0--------5--0--||
a---5----------8-----------5-------------8-----------/3--------||
d--------------------------------------------------------------||

02:35
---
g-------------------------------------||1x
d—-----7--0*-------10--0------5--0----||
a---5-----------8---------/3----------||
d-------------------------------------||

02:42
---
g-------------7------------------------||1x
d—-----7--0*--------10--0------5--0----||
a---5------------8---------/3----------||
d--------------------------------------||

02:48
---
g-------------5h7h5-5-----------------------||1x
d—-----7--0*-------------10--0------5--0----||
a---5-----------------8---------/3----------||
d-------------------------------------------||


02:55
---
g-------------------------------------7------------------------||1x
d—-----7--0*-------10--0*-----7--0*---------10--0--------5--0--||
a---5----------8-----------5-------------8-----------/3--------||
d--------------------------------------------------------------||

03:10
---
g-------------------------------------5h7h5-5------------------------||1x
d—-----7--0*-------10--0*-----7--0*---------------10--0--------5--0--||
a---5----------8-----------5-------------------8-----------/3--------||
d--------------------------------------------------------------------||

03:25
---                                                Play slowly here...
g------------------------------------------------|-----------------||1x
d—-----7--0*-------10--0*-----7--0*--------10--0-|--------5---(0)--||
a---5----------8-----------5------------8--------|---/3------------||
d------------------------------------------------|-----------------||

...
Tell me everything! =D

            
            
Suggest correction
Creating personal tab
Creating personal tab
You can edit any tab online and save it as your Personal.

You can edit, replace or remove any tab part or add personal notes – all changes will be seen only by you.

Personal tabs can be accessed anytime from any device, even offline.
Learn more »
comments
print report bad tab
4 comments total. Showing first comments.
0 reply
dannyloughran 430 Jan 09, 2007 02:45 PM

This is the guitar mate, the bass is the feedback in the background, great guitar tab though, ill give it 3 stars just so people dont get to confused.
Justin uses some pedals and an ebow to get the effect, the pedal is a compressor or sustainer of some sort

0 reply
RosettasKeys 10 Feb 01, 2007 11:00 AM

that's not the bass line. the feedback is what the bass is doing. you transcribed guitar line onto bass.

0 reply
hit321 54 Feb 10, 2007 07:42 PM

I know that this isn't the bass line. but can be played in the bass what guitar do.

guest
You may want to rate the tab now too:
select rating
Wanna post a correction for this tab? Suggest correction