Oops, an error
Loading. Please wait.

No Quarter Tab

version 2
version 2

Whole song

Interactive

by Tool
44,711 views 144 this week
4 commentsread comments
1 2 3 4 5
excellent!
x 29
add to favorites
launch autoscroll
font size
0
reset
how to read this tab
guitar tuner
Tab Pro tools
  • play this tab
  • loop segment
  • change instrument
  • show fretboard
  • metronome
×
Best way to learn
"No Quarter"
Autoscroll
slow
fast
+/-
esc
set tempo
stop
Contributor
I must say that I have checked out most of the other tabs for this song and cannot 
how inaccurate some parts to the song are. I think, no wait, I know that some people
are just other people's tabs and rewriting them. I played along, note for note,
with this song and know that this is the closest one I've heard. I had to sacrifice
time away from my wife 
son just for this, so here it is...........

TUNING: Drop D
p= pull off
h= hammer on
/= slide up
\= slide down

                                 NO QUARTER
                              ----------------
*INTRO*
E|-----------------------|E|-------------|
B|-----------------------|B|-------------|
G|---10p9--9-------------|G|-10p9--9--12-|
D|-------12-10-----------|D|-----12-10---|  PLAY TWICE
A|-------------10-12-----|A|-------------|
D|-0----------------10-0-|D|-------------|

E|------------------|E|-------------------|
B|------------------|B|-------------------|
G|------------------|G|-10p9--9-----------|
D|-7---10--12h14-14-|D|-----12-10--10-----|
A|------------------|A|----------12--12---|
D|------------------|D|-----------------0-|

E|-----------------|E|-------------|
B|-----------------|B|-------------|
G|-----------------|G|-5---4---7---|
D|-10-10h12--5/7-7-|D|----5---5----|
A|-----------------|A|-------------|
D|-----------------|D|-----------0-|

E|-------------------|E|-------------------|
B|-------------------|B|-------------------|
G|-------------------|G|-10p9--9-----------|
D|-7--10-12-12h14-14-|D|-----12-10--10-----|
A|-------------------|A|----------12--12---|
D|-------------------|D|-----------------0-|

E|-------------------------------------|E|---------------|
B|-------------------------------------|B|---------------|
G|-------------------------------------|G|---------------|
D|-10--10h12--5h7-hold-then-/10/12\5---|D|-77--1010-1212-|
A|-------------------------------------|A|---------------|
D|-----------------------------------0-|D|---------------|

*PRE-CHORUS RIFF*
E|-0----------------------------------0---------------------------------|
B|-5--5----5---55-66-88-\slide all---10-10----10---10101010-13--8-bend--|
G|-3---3----3-----------\the way down-8----8-----8----------------------|
D|-2----2----2----------\and reset at-7-----7-----7---------------------|
A|-X----------------------------------X---------------------------------|
D|-X----------------------------------X---------------------------------|

*CHORUS RIFF*
E|--------------------------------------------------------------|
B|--------------------------------------------------------------|
G|--------------------------------------------------------------| PLAY 4x
D|-10h12-121212-10h12-121212-10h12-12--3h5-555p3-333p0-----3p0--|
A|-10h12-121212-10h12-121212-10h12-12--3h5-555p3-333p0--3p0---0-|
D|-10h12-121212-10h12-121212-10h12-12--3h5-555p3-333p0----------|

D|-12--------------------------------------------------------------|
A|-12-then play the whole *INTRO* again and then the *CHORUS RIFF*-|
D|-12--------------------------------------------------------------|

*BREAKDOWN*(clean)
E|------------------------------------------|
B|------------------------------------------|
G|------------------------------------------| PLAY ONCE
D|-10/12--14------14--12p0--3/5-55/8--88888-|
A|-10/12--10-1212-12--12p0--3/5-55/8--88888-|
D|-10/12--10-1212-12--12p0--3/5-55/8--88888-|

E|--------------------------------------------|
B|--------------------------------------------|
G|--------------------------------------------|
D|-10/12----14-----14--12p0-3/5-55/8--10---10-|
A|-10/12--1212-121212--12p0-3/5-55/8----8-8---|
D|-10/12--1212-121212--12p0-3/5-55/8-----8----|

*KING BUZZO DOES HIS SOLO IN THE MIDDLE OF THIS BUT HE'S NOT TOOL*

*ADAM'S ODD-TIMED SOLO* (guessing)
E|--------|             |E|---------------|
B|--------|             |B|---------------|
G|--------|PLAY 7x THEN |G|---------------|
D|--------|             |D|---------------|
A|-8p7-10-|             |A|-8p7-3-5-333-5-|
D|--------|             |D|---------------|

E|--------------------------------------------------------------------------|
B|--------------------------------------------------------------------------|
G|--------------------------------------------------------------------------|
D|------10-----10-----10-----10-----10-hold-10h12-121212p10-1010\888\7-7h8p7|
A|-10h12--10h12--10h12--10h12--10h12----------------------------------------|
D|--------------------------------------------------------------------------|

*Then play the BREAKDOWN again, but with distortion*

*CRUNCH RIFF*
E|--------------------------------|
B|--------------------------------|
G|--------------------------------| PLAY 4x
D|-0-12--1514p0-10h12-7--10/12/15-|
A|-0-12--1514p0-10h12-7--10/12/15-|
D|-0-12--1514p0-10h12-7--10/12/15-|

E|----------------------------------|
B|---15--18\17---13/15-10--13/15/18-|
G|---14--17\16---12/14-9---12/14/17-|  PLAY 4x
D|-0-12--15\14p0-10/12-7---10/12/15-|
A|-0-12--15\14p0-10/12-7---10/12/15-|
D|-0-12--15\14p0-10/12-7---10/12/15-|

*BREAKDOWN #2*(wah required)
E|-------------------------------------------------------|
B|-------------------------------------------------------|
G|-------------------------------------------------------|
D|-------------------------------------------------------|
A|-000000-Do that for a while then--5wah-----------------|
D|-000000-------------------------------0wah000wah000wah-|

E|-X-X-X-X--X-X------X-X-X-X-XX------|
B|-3-3-6-8-1010-bend-3-3-6-8-33-bend-|
G|-2-2-5-7--9-9------2-2-5-7-22------|  PLAY TWICE
D|-0-0-0-0--0-0------0-0-0-0-00------|
A|-0-X-X-X--X-X------0-X-X-X-XX------|
D|-0-X-X-X--X-X------0-X-X-X-XX------|

*Then play the PRE-CHORUS RIFF and CHORUS RIFF(twice)*

E|-----------------------------------------------------------------------|
B|--------------------------------66/8-888\6-666p0-----------------------|
G|--------------------------------55/7-777\5-555p0-----------------------|
D|-10h12X-1212-10h12X-1212-10h12X-33/5-555\3-333p0----3p0-5-------3p0--5-|
A|-10h12X-1212-10h12X-1212-10h12X-33/5-555\3-333p0-3p0----5----3p0-----5-|
D|-10h12X-1212-10h12X-1212-10h12X-33/5-555\3-333p0-------05-3p0-------05-|

(continued)
E|----------------------------|
B|----------------------------|
G|----------------------------|
D|-------3p0--5-0-------0h3-0-|
A|----3p0-----5-0----0h3------|
D|-3p0-------05-0-0h3---------|

*PALM MUTE*
E|-----------|
B|-----------|
G|-----------|  Play that 8x then 8 more
D|-------3p0-|   without the palm mute
A|----3p0----|
D|-3p0-------|

E|---------------|     |E|---------------------------------------|
B|---------------|     |B|---------------------------------------|
G|---------------| 4x  |G|---------------------------------------|  4x
D|---------10p7--|     |D|-----------18p15-hold and bend quickly-|
A|-----10p7------|     |A|------18p15------------on last note----|
D|-10p7----------|     |D|-18p15---------------------------------|

E|-----------|          |E|---|
B|-----------|          |B|---|
G|-----------|  8x then |G|---|
D|-------3p0-|          |D|-0-|
A|----3p0----|          |A|-0-|
D|-3p0-------|          |D|-0-|

That's it! This has to be my favorite cover song. It took a while but it was well worth 
There are some parts that I can't write--they have to be felt while playing the guitar. 
have fun with it!
comments
print report bad tab
4 comments total. Showing first comments. show 1 bad comment
-2 reply
maxgreen wrote on October 2 2006, 06:36 pm

i think this version if perfect... i checked out the no quarter tab ont www.tooltabs.net and it sounds the same its just harder to play wich you never need (simplicity is key) but yeah great tab!!!!

0 reply
M-JK wrote on January 6 2007, 12:36 pm

bravo

I want to post or [tab]
guest
You may want to rate the tab now too:
select rating
Please do not post tabs as comments. Select "correction" instead!