Oops, an error
Loading. Please wait.

Parabol And Parabola Bass Tab

version 1
version 1

Whole song

16,529 views 30 this week
5 commentsread comments
1 2 3 4 5
x 5
add to favorites
launch autoscroll
font size
0
reset
guitar tuner
×
Best way to learn
"Parabol And Parabola"
Autoscroll
slow
fast
+/-
esc
set tempo
stop
intro figure, repeat eight times
G|--------------------------------------------|
D|-0h2-2-2--3p2-2--5p2-2-0--0-0---------------|
E|--------------------------------------------|
B|--------------------------------------------|

   verse, repeat eight times
G|----------------------------------------------|
D|----------------------------------------------|
E|--------------------3p0-0---------------------|
B|-3h5-5-5--6p5-5-------------3--3-3------------|

   bridge, play three times
G|----------------------------------------------|
D|----------------------------------------------|
E|----------------------------------------------|
B|-8--8-8h10--10-10--5--5-5h7-7--7--------------|

   play this bridge fill once
G|----------------------------------------------|
D|----------------------------------------------|
E|----------------------------3-3---------------|
B|-8--8-8h10--10-10--1-1-------------3----------|

   play the intro figure seven times, then play this intro fill once
G|---------------------------|
D|-0h2--0h2--2---------------|
E|---------------------------|
B|---------------------------|

   interlude figure #1, play three times
G|-----------------------------------|
D|-----------------------------------|
E|-----------------------------------|
B|-3--3--3h5-5-3h5--7\---------------|

   play this interlude fill once
G|---------------------------|
D|---------------------------|
E|---------------------------|
B|-3--3--3h5-----------------|

   interlude figure #2, play eight times
G|---------------------------------------|
D|---------------------------------------|
E|---------------------------------------|
B|-3/5--6p5--8\3--3-3--------------------|

   repeat eveything from the bridge to the interlude fill once

   play this figure four times
G|---------------7--------|
D|-5-4-7-4-5-4------------|
E|------------------------|
B|------------------------|

   play this figure four times
G|--------------------------------|
D|-5-4-7-4h5-2-0--7-7-5-5---------|
E|--------------------------------|
B|-----------------------------0--|

   interlude figure #3, play four times
G|------------------------------------|
D|------------------------------------|
E|------------------------------------|
B|-5--5--3----8h10--10--8--8--0-------|

   breakdown figure #1, play four times
G|----------------------------------------|
D|-----------0----------------------------|
E|----5--3------------------3-------------|
B|-5------------3----5--3------0--3-------|

   my favorite part!
G|--------------------------------------------------------|
D|-2-0-------------------2-0------------------------------|
E|------3-2-0-----------------3-2-0--------5--3-----------|
B|--------------3--3--3---------------3--5----------------|

G|--------------------------------------------------------|
D|-2-0-------------------2-0------------------------------|
E|------3-2-0-----------------3-2-0-----------------------|
B|--------------3--3--3---------------3-3h5---------------|

   play this fill twice
G|----------------------------------------------------------------|
D|-0h2--0h2--0h2--0h2p0----------0h2--0h2--0h2--0h2p0-------------|
E|------------------------3--3-------------------------2--2-------|
B|----------------------------------------------------------------|

   play this figure thrice
G|-----------------------------------------|
D|-----------------------------------------|
E|-------5h7--10h12p10---------------------|
B|-3h5-------------------------------------|

   play this fill once
G|------------------------------------------|
D|------------------------------------------|
E|-------5h7--10h12--5h7p5------------------|
B|-3h5----------------------3--3------------|

   play this figure six times
G|-------------------------------------------|
D|-------------------------------------------|
E|-------------------------------------------|
B|-5-5-5-5-5-5-5-5-3-3-3-3-3-3-3-3-----------|

   and finally, play this fill once
G|------------------------------------------------|
D|------------------------------------------------|
E|----3h5-----3h5---------------------------------|
B|-5--------3-------3h5--3h5--5--3----5-----------|



************************************

| h  Hammer-on
| p  Pull-off
| \  Slide down
| /  Slide up

************************************
Suggest correction
comments
print report bad tab
5 comments total. Showing first comments.
0 reply
^_^ 30 Oct 29, 2004 08:00 PM

.....your stupid....its drop d.... and it is E|-22-2p3-0000 with drop d

-2 reply
^_^ 30 Oct 29, 2004 08:00 PM

next part after 8 of those is A|-77-7p10-
E|-00-00

0 reply
^_^ 30 Oct 29, 2004 08:00 PM

get it right GOD

guest
You may want to rate the tab now too:
select rating
Wanna post a correction for this tab? Suggest correction