Oops, an error
Loading. Please wait.

Parabol And Parabola Tab

version 4
version 4
by Tool
43,094 views 30 this week
2 commentsread comments
1 2 3 4 5
worth learning
x 3
add to favorites
launch autoscroll
font size
0
reset
how to read this tab
guitar tuner
Tab Pro tools
  • play this tab
  • loop segment
  • change instrument
  • show fretboard
  • metronome
×
Best way to learn
"Parabol And Parabola"
Autoscroll
slow
fast
+/-
esc
set tempo
stop
Contributor
Song: Parabol and Parabola
Artist: Tool
Album: Lateralus
Tuning: BEDGBE
It seems that most of you who have tabbed this where tabbing a little bit too broadly
Parabol:
E |------------------------------------------------------|
B |------------------------------------------------------|
G |------------------------------------------------------|
D |0h2----7h9--------0h2----7h9-7------------------------|
E |0------0----------0------0---0------------------------|
B |0------0----------0------0----------------------------|

Parabola:                       Intro/main riff
E |----]----------------------------------------]--------|
B |----]----------------------------------------]--------|
G |----]o--------------------------------------o]--------|
D |----]----------------------------------------]--------|
E |--9/]o-5/7-7-9-5-7-5------5/7-7-9-5-7-5-----o]--------|
B |--7/]--3/5-5-7-3-5-3-000--3/5-5-7-3-5-3-000--]--------|

Then play this w/ delay  solo riff 1
E |------------------------------------------------------|
B |------------------------------------------------------|
G |--------------------------14h16-16--1616-1616-16------|
D |-12h14-14--1414-1414-14-------------------------------|
E |------------------------------------------------------|
B |------------------------------------------------------|
Keep delay

E |------------------------------------------------------|
B |------------------------------------------------------|
G |--------------------------14h16-14-14b---r------------|
D |-12h14-14--1414-1414-14-------------------------------|
E |------------------------------------------------------|
B |------------------------------------------------------|

No delay heavy dist.
E |------------------------------]-----------------------|
B |------------------------------]-----------------------|
G |o----------------------------o]-----------------------|
D |-x-x-----x-x---------x-x--x-x-]-----------------------|
E |ox-x-----x-x---------x-x--x-xo]xxxx-------------------|
B |-x-x-----x-x---------x-x--x-x-]xxxx-------------------|


E |------------------------------------------------------|
B |------------------------------------------------------|
G |------------------------------------------------------|
D |------------------------------------------------------|
E |-10--101010--12--121212---7---7-7-7-5-5-5-5-----------|
B |-8---8-8-8---10--101010---5---5-5-5-3-3-3-3-----------|


E |------------------------------------------------------|
B |------------------------------------------------------|
G |------------------------------------------------------|
D |------------------------------------------------------|
E |---55-77-99-1212--10-999----repeat main riff----------|
B |---33-55-77-1010--8--777------------------------------|

Riff 3
E |------------------------------------------------------|
B |------------------------------------------------------|
G |------------------------------------------------------|
D |------------------------------------------------------|
E |-5-5----5-5--2--0-23-0-52-----------------------------|
B |-3-3----3-3--0--0-00-0-00-----------------------------|


E |------------------------------------------------------|
B |------------------------------------------------------|
G |------------------------------------------------------|
D |--------------0h2--2h4-4------------------------------|
E |-777-5-2-222--0----0---0-2----------------------------|
B |-555-3-0-000-------------0----------------------------|
                                Solo: first repeat solo riff 1 w/ wah

E |-----------------]------------------------------------|
B |-----------------]---------------------------15-14----|
G |-----------------]--------------------14-1614---------|
D |-----------------]-12h14-1414-1414-14-----------------|
E |-5/7-7-7-9/5-5-5-]------------------------------------|
B |-3/5-5-5-7/3-3-3-]------------------------------------|

E |------------------------------------------------------|
B |--------15----------15-14-----------------------------|
G |-141414-------14-12------12-14-12~~~~~~~~-12h14p12----|
D |-----------12-----------------------------------------|
E |------------------------------------------------------|
B |------------------------------------------------------|


E |--------------------------]---------------------------|
B |--------------------------]---------------------------|
G |-14b-r-12-14-12-14--------]o----12P-14Pbr-14-12P--o---|
D |-------------------14~~~~/]-14P-----------------------|
E |--------------------------]o----------------------o---|
B |--------------------------]---------------------------|


E |------------------------------------------------------|
B |------------------------------------------------------|
G |-12P--------------------------------------------------|
D |-----12P-14-12P—99~~~~~~------------------------------|
E |------------------------------------------------------|
B |------------------------------------------------------|
                    Repeat main riff and riff 3 then bass plays riff
E |-------------------------------------------------------|
B |-------------------------------------------------------|
G |-------------------------------------------------------|
D |-------------------------------------------------------|
E |-5-7----5-7----5-7-----7/-x-7--------9-7---------12-10-|
B |-3-5----3-5----3-5-----5/-x-5--7-7-7-7-5-5-5-5-3-10-8--|


E |------------------------------------------------------|
B |------------------------------------------------------|
G |------------------------------------------------------|
D |------------------------------------------------------|
E |-7-5--5-5------10-7-5-5-5-----------------------------|
B |-5-3--3-3-xxxx-8--5-3-3-3-xxx-------------------------|


E |-------------------]----------------------------------|
B |-------------------]----------------------------------|
G |-------------------]----------------------------------|
D |-------0-----------]----------------------------------|
E |-0-5-3--5-0-5-3----]----12-10-15-10-12-10-------------|
B |--------3---3--0-3-]-12-------------------12-0-10-----|

E |------------------------------------------------------|
B |------------------------------------------------------|
G |------------------------------------------------------|
D |------------------------------------------------------|
E |-0-2-32-0-0--5-5-5-0-2-32-0-0-0-5-3-0-2-32-0-0-5-5-5--|
B |---------3---3-3-3---------3----------------3--3-3-3--|


E |------------------------------------------------------|
B |------------------------------------------------------|
G |------------------------------------------------------|
D |------------------------0-----------------------------|
E |-0-2-32-0-0-5-----0-5-3--5-0-5-3----------------------|
B |---------3--3------------3---3--0-3-------------------|


E |--------------------------]---------------------------|
B |--------------------------]---------------------------|
G |--------------------------]---------------------------|
D |--------------------0h2-0-]----------0h2--------------|
E |-5/-7-------5h7-xxx-------]-----5h7------5h7-5--------|
B |-3/-5--xxx----------------]-3h5--------------3--------|
E |------------------------------------------------------|
B |------------------------------------------------------|
G |------------------------------------------------------|
D |------------------------------------------------------|
E |------------------------------------------------------|
B |------------------------------------------------------|


E |--------------]---------------------------------------|
B |--------------]---------------------------------------|
G |--------------]---------------------------------------|
D |--------------]---------------------------------------|
E |-5-xx-5-xxxxx-]-5----5------5----5----5-----5---------|
B |-3-xx-3-xxxxx-]-3----3------3----3----3-----3---------|


E |------------------------------------------------------|
B |------------------------------------------------------|
G |------------------------------------------------------|
D |------------------------------------------------------|
E |-0--3-5-5--3-5--5-5---5-5--2--------------------------|
B |-0------3-------3-3---3-3--0--------------------------|

Extremely heavy dist.
E |------------------------------------------------------|
B |------------------------------------------------------|
G |------------------------------------------------------|
D |------------------------------------------------------|
E |-2--0-2-0-2-0-2-2323-0-0-0-5-5--2---------------------|
B |-0-------------------------3-3--0---------------------|
Clean
E |---------------------------------------12-------------|
B |-------------------------------------12---------------|
G |-----4---4-2h4p2---2---------------12-----------------|
D |-----------------5---5--2h4p2/------------------------|
E |--0-----------------------------12--------------------|
B |------------------------------------------------------|
comments
We did not receive enough feedback on this tab! Please rate:
print report bad tab
1 2 3 4 5
2 comments total.
0 reply
sberube1979 wrote on June 26 2009, 09:48 pm

Nope

0 reply
foleymarc12 wrote on August 12 2015, 06:47 pm

are those 'thirty two's and no 3-2?

I want to post or [tab]
guest
You may want to rate the tab now too:
select rating
Please do not post tabs as comments. Select "correction" instead!