Oops, an error
Loading. Please wait.

Parabola Tab

version 1
version 1

Whole song

Interactive

by Tool
21,188 views 219 this week
no commentswrite comment
1 2 3 4 5
please rate
add to favorites
launch autoscroll
font size
0
reset
how to read this tab
guitar tuner
Autoscroll
slow
fast
+/-
esc
set tempo
stop
Help us to improve Ultimate-Guitar.com Take our survey!
×
Author
Difficulty
intermediate
Parabola by Tool

Tabbed by: Radiohead293

Time: 4/4

[0:00]
(distortion + delay)

e|----------------------------------|
B|----------------------------------|
G|----------------------------------|
D|-0h2------------------------------| x4
E|-0-----0-1p0---0-3p0---0----------|
B|-------------------------3b--p0---|


[0:09]

e|---------------------------------------------------------------------|
B|---------------------------------------------------------------------|
G|---------------------------------------------------------------------|
D|-12h14---14-14~--14-14~--14-14~----19h21---21-21~--21-21~--21-21~-\--|
E|---------------------------------------------------------------------|
B|---------------------------------------------------------------------|

e|---------------------------------------------------------------------|
B|---------------------------------------------------------------------|
G|---------------------------------------------------------------------|
D|-12h14---14-14~--14-14~--14-14~----19h21-19---19b------br---------\--|
E|---------------------------------------------------------------------|
B|---------------------------------------------------------------------|


[0:28]

e|----------------------------------------------------------------------|
B|----------------------------------------------------------------------|
G|----------------------------------------------------------------------|
D|----------------------------------------------------------------------|
E|-7-7--------------------------------7-7-------------------------------|
B|-5-5--------------------------------5-5-------------------------------|
   m m                                m m 
e|----------------------------------------------------------------------|
B|----------------------------------------------------------------------|
G|----------------------------------------------------------------------|
D|----------------------------------------------------------------------|
E|-7-7--------------------------------7-7----------7-7----------7-7-7-7-|
B|-5-5--------------------------------5-5----------5-5----------5-5-5-5-|
   m m                                m m          m m          m m m m 


[0:38]

e|----------------------------------------------------------------|
B|----------------------------------------------------------------|
G|----------------------------------------------------------------|
D|---------------------------------9---9---9-9/11--11--11-12--12--|
E|-10--10--1010/12--12--12-12---12-0---0---0-0-----0---0--0---0---|
B|-8---8---8-8-/10--10--10-10---10--------------------------------|

e|----------------------------------------------------------------|
B|----------------------------------------------------------------|
G|----------------------------------------------------------------|
D|----------------------------------------------------------------|
E|-10--10--1010/12--12--12-12---12-7---7---7-7h9---9---9-10--10---|
B|-8---8---8-8-/10--10--10-10---10-5---5---5-5-----5---5-5---5----|

e|----------------------------------------------------------------|
B|----------------------------------------------------------------|
G|----------------------------------------------------------------|
D|---------------------------------9---9---9-9/11--11--11-12--12--|
E|-10--10--1010/12--12--12-12---12-0---0---0-0-----0---0--0---0---|
B|-8---8---8-8-/10--10--10-10---10--------------------------------|

e|----------------------------------------------------------------|
B|----------------------------------------------------------------|
G|----------------------------------------------------------------|
D|----------------------------------------------------------------|
E|-10--10--1010/12--12--12-12---x-x-3---3-/-10--10--5-------------|
B|-8---8---8-8-/10--10--10-10---x-x-1---1-/-8---8---3-------------|


[0:57]

e|----------------------------------|
B|----------------------------------|
G|----------------------------------|
D|-0h2------------------------------| x7
E|-0-----0-1p0---0-3p0---0----------|
B|-------------------------3b--p0---|

e|----------------------------------|
B|----------------------------------|
G|----------------------------------|
D|----------------------------------|
E|-5-7-------------5-7-----5--------|
B|-3-5-------------3-5-----3--------|
   m m             m m     


[1:16]

e|----------------------------------|
B|----------------------------------|
G|----------------------------------|
D|----------------------0h2---4-\---| x3
E|---------5p0---0------0-----0-----|
B|-0h3-3-3-----0--------------------|

e|----------------------------------|
B|----------------------------------|
G|----------------------------------|
D|----------------------------------| 
E|---------5p0---0------------------|
B|-0h3-3-3-----0--------------------|


[1:25]

e|-----------------------------|
B|-----------------------------|
G|-----------------------------|
D|-----------------------------| x4
E|-5/7-7-7-8\7-7-10\---5---5-5-|
B|-3/5-5-5-6\5-5-8-\---3---3-3-|


[1:35]

e|---------------------------------------------------------------------|
B|---------------------------------------------------------------------|
G|---------------------------------------------------------------------|
D|-12h14---14-14~--14-14~--14-14~----19h21---21-21~--21-21~--21-21~-\--|
E|---------------------------------------------------------------------|
B|---------------------------------------------------------------------|

e|---------------------------------------------------------------------|
B|---------------------------------------------------------------------|
G|----------------------------------------------------19---18----------|
D|-12h14---14-14~--14-14~--14-14~----19h21-19-------------------19-----|
E|---------------------------------------------------------------------|
B|---------------------------------------------------------------------|

e|--------------------------------------------------------------------------|
B|-------------/15-14-------------------------------------------------------|
G|-----11-/12----------12-/14-\12~---12-/14-h16--14~\12-11~/12--------------|
D|-9-----------------------------------------------------------14b--br----~-|
E|--------------------------------------------------------------------------|
B|--------------------------------------------------------------------------|

e|--------------------------------------------------------------------------|
B|--------------------------------------------------------------------------|
G|----*11-*12----------------*11-*12----------------------------------------|
D|*9----------*12-*11~---*9----------*12-*11~----*12-*12-\7~----------------|
E|--------------------------------------------------------------------------|
B|--------------------------------------------------------------------------|


[2:03]

e|----------------------------------|
B|----------------------------------|
G|----------------------------------|
D|-0h2------------------------------| x7
E|-0-----0-1p0---0-3p0---0----------|
B|-------------------------3b--p0---|

e|----------------------------------|
B|----------------------------------|
G|----------------------------------|
D|----------------------------------|
E|-5-7-------------5-7-----5--------|
B|-3-5-------------3-5-----3--------|
   m m             m m     


[2:22]

e|----------------------------------|
B|----------------------------------|
G|----------------------------------|
D|----------------------0h2---4-\---| x3
E|---------5p0---0------0-----0-----|
B|-0h3-3-3-----0--------------------|

e|----------------------------------|
B|----------------------------------|
G|----------------------------------|
D|---------------2------------------| 
E|---------5p0---0------------------|
B|-0h3-3-3-----0--------------------|


[2:36]

e|--------|
B|--------|
G|--------|
D|--------| x3
E|-14--7--|
B|-12--5--|


[2:48]

e|---------------------------------------------------------------|
B|---------------------------------------------------------------|
G|---------------------------------------------------------------|
D|---------------------------------------------------------------| x4
E|-7-----------5-----------------12------------10----\-----------|
B|-5-----------3-----------------10------------8-----\-----------|
   m           m                 m             m


[3:08]

e|---------------------------------------------------------------|
B|---------------------------------------------------------------|
G|---------------------------------------------------------------|
D|---------------------------------------------------------------|
E|-5/7---7---7-5-----x-x-x-x-x-x-10/12--12--12-10--------10\-----|
B|-3/5---5---5-3-----x-x-x-x-x-x-8-/10--10--10-8---------8-\-----|
                                                                  }x2
e|---------------------------------------------------------------|
B|---------------------------------------------------------------|
G|---------------------------------------------------------------|
D|---------------------------------------------------------------|
E|-5/7---7---7-5-----x-x-x-x-x-x-10/12--12--12-10----------------|
B|-3/5---5---5-3-----x-x-x-x-x-x-8-/10--10--10-8---------0-------|


[3:28]

e|---------------------------------------------------------------|
B|---------------------------------------------------------------|
G|---------------------------------------------------------------|
D|-------------------0-------------------------------------------| x3
E|-0-----5-----3-------------------0-----------3-----------------|
B|-------------------------3-------------3-----------0-----3-----|

e|---------------------------------------------------------------|
B|---------------------------------------------------------------|
G|---------------------------------------------------------------|
D|---------------------------------------------------------------|
E|-------------10----10------------------------10----------------|
B|/12----10----------------10------12----10----------0-----10----|


[3:48]

e|-----------------------------------------------------------|
B|-----------------------------------------------------------|
G|-----------------------------------------------------------|
D|-2p0-------------------------2p0---------------------------|
E|-----3p2p0-----------------------3p2p0-----------5-----3---|
B|-----------3-----3-----3---------------3---5---------------|

e|-----------------------------------------------------------|
B|-----------------------------------------------------------|
G|-----------------------------------------------------------|
D|-2p0-------------------------2p0---------------------------|
E|-----3p2p0-----------------------3p2p0-----7---------------|
B|-----------3-----3-----3---------------3---5---------------|


[4:00]

e|---------------------------------------------------------------|
B|---------------------------------------------------------------|
G|---------------------------------------------------------------|
D|-------------------0-------------------------------------------| 
E|-0-----5-----3-------------------0-----------3-----------------|
B|-------------------------3-------------3-----------0-----3-----|


[4:05]

e|------------------------------------|
B|------------------------------------|
G|------------------------------------|
D|------------------------------------| x3
E|---------------5h7---x-x-10h12-10~--|
B|-3h5---x-x-x-x----------------------|

e|---------------------------------|
B|---------------------------------|
G|---------------------------------|
D|---------------------------------|
E|-----0-5h7-0-10h12-0-5h7-0-------|
B|-3h5-----------------------3-----|


[4:15]

e|---------------------------------|
B|---------------------------------|
G|---------------------------------|
D|---------------------------------| x7
E|---------------------------------|
B|-5-5-5-5-5-5-5-3-3-3-3-3-3-3-3-3-|
     m m m m m m   m m m m m m m m 


[4:29]

e|-------------------------------------------------------|
B|-------------------------------------------------------|
G|-------------------------------------------------------|
D|-------------------------------------------------------|
E|-----3h5---------3h5-----5-7-----5-7-----5--------/7---|
B|-5-----------3-----------3-5-----3-5-----3--------/5---|
                           m m     m m 

[4:37]

e|--------------------------------------------------------------------|
B|--------------------------------------------------------------------|
G|--------------------------------------------------------------------|
D|------------------------------------------2-----------2-------------| x6
E|-------0h2---0h2---0h2---2b3br2b3-0-----------0-0---------0-5---5---|
B|-0----------------------------------------------------------3---3---|

e|--------------------------------------------------------------------|
B|--------------------------------------------------------------------|
G|--------------------------------------------------------------------|
D|--------------------------------------------------------------------|  
E|-------0h2---0h2---0h2---2b3br2b3-0---------------------------------|
B|-0------------------------------------------------------------------|


[5:37]

clean no delay
e|--------------------------------------------------|
B|--------------------------------------------------|
G|--------------------------------------------------|
D|-7h9------------------------------0h2-------------|
E|-0--------------------------------0---------------|
B|--------------------------------------------------|

e|--------------------------------------------------------+12---------------|
B|-----------------------------------------------+12------------------------|
G|-4---2h4p2-0--------------------------+12---------------------------------|
D|---------------4/5--\4---0-----2------------------------------------------|
E|--------------------------------------------------------------------------|
B|--------------------------------------------------------------------------|
 

************************************

| x   Dead note
| h   Hammer-on
| p   Pull-off
| b   Bend
| br  Bend release
| /   Slide up
| \   Slide down
| ~   Vibrato 

************************************
Suggest correction new What's this?
You can suggest a correction to this tab. Community and Mods will review your correction and vote to approve or reject it.
comments
We did not receive enough feedback on this tab! Please rate:
print report bad tab
1 2 3 4 5
guest
You may want to rate the tab now too:
select rating
Please do not post tabs as comments. Select "correction" instead!