Oops, an error
Loading. Please wait.

Prison Sex bass

version 1
version 1

Whole song

Interactive

by Tool
23,633 views 54 this week
7 commentsread comments
1 2 3 4 5
x 15
add to favorites
×
Save as Personal and add changes to this tab that will be seen only by you. Learn more ›
×
You can save this tab as Personal to edit and correct it or add notes. All changes will be seen only by you. Learn more »
launch autoscroll
font size
0
reset
guitar tuner
backing track
0:00
0:00
edit
Autoscroll
slow
fast
+/-
esc
set tempo
stop
Author
Difficulty
Tabbed By : Xcrimson_ghostX
e-mail: skawful27@aim.com

Tuning: drop the E to B if you dont have a 5-string

G|------------------|
D|------------------| x4
A|--5-----0----0h2--|
B|----3-0----3------|
 
G|---------------------|
D|--------2------------| x8
A|--5----------0h2-22--|
B|----3-0----3---------|
 
G|------------------|
D|------------------| x4
A|----5-------------|
B|--3---0—10---0----|
 
G|---------------------|
D|--------2------------| x8
A|--5----------0h2-22--|
B|----3-0----3---------|
 
                 x3
G|------------------|----------------|
D|------------------|----------------|
A|----5-------------|----5-----------|
B|--3---0—10---0----|--3---0—-10-----|
 
G|--------------------------------|
D|--------------------------------| x3
A|--------------------------------|
B|--0--0-10--0-3--0-5--0-5-0-3-0--|
 
G|----------------------------------------|
D|----------------------------------------|
A|----------------------------------------|
B|--0-0-0--5-5-5--3-3-3--8-8-8--5-5--3-3--|
 
                 x3
G|------------------|----------------------|
D|------------------|--------2--2p0-2p0----|
A|--5-----0----0h2--|--5----------------2--|
B|----3-0----3------|----3-0---------------|
 
G|---------------------|
D|--------2------------| x8
A|--5----------0h2-22--|
B|----3-0----3---------|
 
                 x3
G|------------------|----------------|
D|------------------|----------------|
A|----5-------------|----5-----------|
B|--3---0—10---0----|--3---0—-10-----|
 
G|--------------------------------|
D|--------------------------------| x3
A|--------------------------------|
B|--0--0-10--0-3--0-5--0-5-0-3-0--|
 
G|----------------------------------------|
D|----------------------------------------| x3
A|----------------------------------------|
B|--0-0-0--5-5-5--3-3-3--8-8-8--5-5--3-3--|
 
G|-------------------------------|
D|-----------------------5h7-----|
A|-------------------5h7---------| x3
B|--0--00--00--00--x-------------|
 
G|------------------------|
D|---7—x5------------5----|
A|---------x7---x5h7------|
B|------------------------|
 
                 x3
G|------------------|----------------|
D|------------------|----------------|
A|----5-------------|----5-----------|
B|--3---0—10---0----|--3---0—10------|
 
               x15
G|---------------------------------|------------------------|
D|---------------------------------|------------------------|
A|--0h2-2-2-2--0h2--p0h2p0h2p0h2---|--22--2-22--2-22--2-22--|
B|---------------------------------|------------------------|

G|------------------------------------------------------------------|
D|------------------------------------------------------------------|
A|------------------------------------------------------------------|
B|--//12--12--12-12-12--10--10--10-10-10--8--8--8-8-8--5--5--5-5-5--|
 
G|------------------------|
D|------------------------|
A|--------------------10--| x4
B|--12-12-1212-121212-----|
 
G|--------------------------|
D|--------------------------| x4
A|--------------------------|
B|--3-0-5-0-3-0-10-0-12-10--|
 
G|----------------------|
D|----------------------| x4
A|----------------------|
B|--3--5--3--10--12-10--|
 
G|------------------|
D|--4--x-x-x-x------| x8
A|--2--x-x-x-x------|
B|--0--x-x-x-x------|
gradually slowing down....follow drums...


| /  slide up
| \  slide down
| h  hammer-on
| p  pull-off
| ~  vibrato
| +  harmonic
| x  Mute note
===============================================================================
Suggest correction
Creating personal tab
Creating personal tab
You can edit any tab online and save it as your Personal.

You can edit, replace or remove any tab part or add personal notes – all changes will be seen only by you.

Personal tabs can be accessed anytime from any device, even offline.
Learn more »
comments
print report bad tab
7 comments total. Showing first comments.
+1 reply
bassbizzle 71 Apr 08, 2007 10:25 AM

nice! i'v been looking for a good version of this tab and i found it excellent!

+1 reply
14shadesofblue 314 May 08, 2007 08:15 AM

100% correct

+3 reply
alucardmik 10 Aug 18, 2007 04:15 AM

Way to copy tooltabs.net and then claim it as your own.

guest
You may want to rate the tab now too:
select rating
Wanna post a correction for this tab? Suggest correction