Oops, an error
Loading. Please wait.

Reflection bass

version 2
version 2

Whole song

Interactive

by Tool
19,877 views 6 this week
2 commentsread comments
1 2 3 4 5
x 5
add to favorites
×
Save as Personal and add changes to this tab that will be seen only by you. Learn more ›
×
You can save this tab as Personal to edit and correct it or add notes. All changes will be seen only by you. Learn more »
launch autoscroll
font size
0
reset
guitar tuner
edit
Autoscroll
slow
fast
+/-
esc
set tempo
stop
Author
Unregistered
Tuning: drop D

G|--------------------2-----0----------|
D|--4----------------------------------|
A|--2--2p0-0-0-2-2p0-----3-------------|
d|-------------------------------------|

(3:21)    (volume swell and feedback here)
G|----------------------------------------| (4x)
D|----------------------------------------|
A|--2-------3--2-------0------------------|
d|----------------------------------------|

G|--------------------2-----0----------|
D|--4----------------------------------|
A|--2--2p0-0-0-2-2p0-----3-------------|
d|-------------------------------------|

(4:20)
G|-------------0----|---------------------|
D|-----4--4-0----0--|---------------------|
A|--2---------------|---------------------|
D|------------------|--5---10--10---------|

G|------------------------------------|(8x)
D|------------------------------------|
A|--2--2-2--------0--3----------------|
D|----------0-------------------------|

G|--------------------2-----0----------|
D|--4----------------------------------|
A|--2--2p0-0-0-2-2p0-----3-------------|
d|-------------------------------------|

(volume swell and feedback here)
G|----------------------------------------| (4x)
D|----------------------------------------|
A|--2-------3--2-------0------------------|
d|----------------------------------------|

G|--------------------2-----0----------| (8x)
D|--4----------------------------------|
A|--2--2p0-0-0-2-2p0-----3-------------|
d|-------------------------------------|

G|-------------0----|---------------------|(4x)
D|-----4--4-0----0--|---------------------|
A|--2---------------|---------------------|
D|------------------|--5---10--10---------|

G|------------------------------------| (7x)
D|------------------------------------|
A|--2--2-2--------0--3----------------|
D|----------0-------------------------|

G|-----------------|
D|-----------------|
A|--2--2-2---------|
D|----------0------|

(7:26)
G|----------------------------------------|
D|----------------------------------------|
A|--0h2--2-2p0-0-0h2-2-2p0-0-0h2-2--------|
D|----------------------------------------|

(7:56)
G|------------------------------|
D|--------4-4-------4-4---------|
A|--0h2-2-----0h2-2-----0h2-----|
D|------------------------------|

(8:06)
G|------------------------------------------------|
D|------------------------------------------------|
A|--2-2-2-------2-2-2-------3---------------------|
D|--------0-0-0-------0-0-0-----------------------|

G|--------------------2-----0----------|
D|--4----------------------------------|
A|--2--2p0-0-0-2-2p0-----3-------------|
d|-------------------------------------|

(8:47)
G|-----------0-|---------0-|--------------|
D|-------4-----|--0--------|--------------|
A|--2----------|-----0-----|--------------|
D|-------------|-----------|--5-----------|

G|----------------|--------0---|--------0--|--------------------|
D|----------------|-----4------|------4----|--------------------|
A|--3-----------0-|--2---------|--5--------|--------------------|
D|----------------|------------|-----------|--5-----------------|

G|------------------|
D|------------------|
A|--3---------------|
D|------------------|

G|-------------0----|---------------------|
D|-----4--4-0----0--|---------------------|
A|--2---------------|---------------------|
D|------------------|--5---10--10---------|

G|-------------0----|---------------------|
D|-----4--4-0----0--|---------------------|
A|--2---------------|---------------------|
D|------------------|--5///15--15---------|

G|-------------|
D|-------------|
A|-------------|
D|--9---9--0---|

(9:40)
G|--------------------------------------------------|
D|--------------------------------------------------|
A|--------------------------------------------------|
D|--9--0--9--7--10----------------------------------|

(9:50)
G|---------------------|---------------------------|
D|---------------------|---------------------------|
A|---------------------|---------------------------|
D|--9--9-9--0---0--0-0-|--5--5---5--5---7//10------|

(10:04)
G|----------------------|-----------------|
D|----------------------|-----------------|
A|----------------------|-----------------|
D|--9--9-9--0---0--0-0--|----5------------|


************************************

| p  Pull-off
| h  Hammer-on
| /  Slide up

************************************
Suggest correction
Creating personal tab
Creating personal tab
You can edit any tab online and save it as your Personal.

You can edit, replace or remove any tab part or add personal notes – all changes will be seen only by you.

Personal tabs can be accessed anytime from any device, even offline.
Learn more »
comments
print report bad tab
2 comments total.
0 reply
Madcowsaymoo2 10 Jul 02, 2012 03:21 PM

Hey man. Good job on your tab. Just a correction, when he is playing the main riff, and he hits the 3 and 0 on the G string, it's a combination of an open D and the 3 or 0, if that makes any scence

0 reply
Madcowsaymoo2 10 Jul 02, 2012 03:24 PM

oh. I meant a 2 on the g instead of a 3. My bad.

guest
Wanna post a correction for this tab? Suggest correction