Oops, an error
Loading. Please wait.

Right In Two bass

version 1
version 1

Whole song

Interactive

by Tool
19,917 views 21 this week
14 commentsread comments
1 2 3 4 5
x 11
add to favorites
×
Save as Personal and add changes to this tab that will be seen only by you. Learn more ›
×
You can save this tab as Personal to edit and correct it or add notes. All changes will be seen only by you. Learn more »
launch autoscroll
font size
0
reset
guitar tuner
edit
Autoscroll
slow
fast
+/-
esc
set tempo
stop
This is my first tab ever so be easy on me hehe =D

email: parade_of_chaos1@hotmail.com

Artist: Tool
Song: Right In Two
Tuning: Drop D

0:00 - 1:20(I think this is with delay)
G|-----------------------------------------------------------------|
D|-----------------------------------------------------------------|
A|-----------------------------------------------------------------|
D|---0~---8~---5~---10~--------------------------------------------|

1:42 - 2:27
G|-----------------------------------------------------------------|
D|-----------------------------------------------------------------|
A|-----------------------------------------------------------------|
D|---0~---8~---5~---10~--------------------------------------------|

2:50 - 3:28
G|-----------------------------------------------------------------|
D|------0~---10~---7~---13/12--------------------------------------|
A|-----------------------------------------------------------------|
D|---0----8----5----10---------------------------------------------|

3:29 - 3:34
G|-----------------------------------------------------------------|
D|------0~---10~---7~---12-----------------------------------------|
A|-----------------------------------------------------------------|
D|---0----8----5----10------3-3-3-3-5~-----------------------------|

3:36 - 3:37
G|-----------------------------------------------------------------|
D|-----------------------------------------------------------------|
A|-----------------------------------------------------------------|
D|---3-0-0-0-0-----------------------------------------------------|

3:38 - 3:58
G|-----------------------------------------------------------------|
D|-----------------------------------------------------------------|
A|-----------------------------------------------------------------|
D|---0-0-0-8-8-10-10-10-5------------------------------------------|

5:00 - 5:23 (Take distortion off)
G|-----------------------------------------------------------------|
D|----10-12-12-10-12-10--------------------------------------------|
A|-----------------------------------------------------------------|
D|-----------------------------------------------------------------|

5:24 - 5:34 (put distortion back on)
G|-----------------------------------------------------------------|
D|-----------------------------------------------------------------|
A|-----------------------------------------------------------------|
D|---0~-10-0-10----------------------------------------------------|                     
                                    One part is different, buy you'll catch it

5:35 - 5:43
G|-----------------------------------------------------------------|
D|-----------------------------------------------------------------|
A|-----------5-----------------------------------------------------|
D|---0-0-3-5-------------------------------------------------------|
Same for here

5:48 - 6:04 (solo type part)
G|-----------------------------------------------------------------|
D|-----------------------------------------------------------------|
A|-----------------------------------------------------------------|
D|---0-0-10-12-10--------------------------------------------------|
Same for here

6:05 - 6:23
G|-----------------------------------------------------------------|
D|-----------------------------------------------------------------|
A|-----------------------------------------------------------------|
D|---0~-10-0-10----------------------------------------------------|

6:24 - 6:43
G|-----------------------------------------------------------------|
D|------0~---10~---7~---13/12--------------------------------------|
A|-----------------------------------------------------------------|
D|---0----8----5----10---------------------------------------------|

6:44 - 6:58
G|-----------------------------------------------------------------|
D|-----------------------------------------------------------------|
A|-----------------------------------------------------------------|
D|-----10-12-13-10-12-15-12----------------------------------------|
I think it's reallt just 0 on the D and follow the drum beat, but you can play this is 
want

6:59 - 7:09
G|-----------------------------------------------------------------|
D|-----------------------------------------------------------------|
A|-----------------------------------------------------------------|
D|---0~-10-0-10----------------------------------------------------|

7:10 - 7:24
G|-----------------------------------------------------------------|
D|------0~---10~---7~---13/12--------------------------------------|
A|-----------------------------------------------------------------|
D|---0----8----5----10---------------------------------------------|

7:25 - 7:29
G|-----------------------------------------------------------------|
D|------0~---10~---7~---12-----------------------------------------|
A|-----------------------------------------------------------------|
D|---0----8----5----10------3-3-3-3-5~-----------------------------|

7:31 - 7:32
G|-----------------------------------------------------------------|
D|-----------------------------------------------------------------|
A|-----------------------------------------------------------------|
D|---3-0-0-0-0-----------------------------------------------------|

7:33 - 7:51
G|-----------------------------------------------------------------|
D|-----------------------------------------------------------------|
A|-----------------------------------------------------------------|
D|---0-0-0-8-8-10-10-10-5------------------------------------------|

7:52 - 7:52 (clean, take off distortion)
G|-----------------------------------------------------------------|
D|-----------------------------------------------------------------|
A|-----------------------------------------------------------------|
D|---0~---8~---5~---10~--------------------------------------------|

Guitar Outro, and that's it, please email me if you can make any corrections.

            
            
Suggest correction
Creating personal tab
Creating personal tab
You can edit any tab online and save it as your Personal.

You can edit, replace or remove any tab part or add personal notes – all changes will be seen only by you.

Personal tabs can be accessed anytime from any device, even offline.
Learn more »
comments
print report bad tab
14 comments total. Showing first comments.
0 reply
alucardmik 10 Jan 24, 2007 06:43 PM

thank you so much for doing a tab for this song you wouldnt know how long ive been waiting for one, nice job.

0 reply
sickmike 51 Feb 27, 2007 07:03 PM

in the intro riff instead of it being open its probaly a mute

0 reply
STeven on bass! 10 Apr 24, 2007 01:08 AM

Well i think this is great for your first tab, well done! 4 stars but i probably should have given it 5

guest
You may want to rate the tab now too:
select rating
Wanna post a correction for this tab? Suggest correction