Oops, an error
Loading. Please wait.

Right In Two tab

version 1
version 1

Whole song

Interactive

by Tool
78,048 views 48 this week
6 commentsread comments
1 2 3 4 5
x 9
add to favorites
×
Save as Personal and add changes to this tab that will be seen only by you. Learn more ›
×
You can save this tab as Personal to edit and correct it or add notes. All changes will be seen only by you. Learn more »
launch autoscroll
font size
0
reset
how to read this tab
guitar tuner
edit
Autoscroll
slow
fast
+/-
esc
set tempo
stop
Artist: Tool
Song: Right in two
Tabbed by: slyo

Tuning: Drop D 
        DADGBe

[Intro]
(Guitar 1)
((Clean + Delay (Let bottom string ring))
E|-----------------------------------------------------------|
B|-----------------------------------------------------------|
G|-----------------------------------------------------------|
D|----------7/-----------10----------------7--------------12-|
A|------5-------------8-----------------5--------------------|
D|-0-------------8----------------5------------------10------|

E|--------------------------------------------------------------|
B|--------------------------------------------------------------|
G|--------------------------------------------------------------|
D|----------7/-----------10----------------7--------------12/13-|
A|------5-------------8-----------------5-----------------------|
D|-0-------------8----------------5------------------10---------|

[Intro]
(Guitar 1)
((Clean + Delay (Let bottom string ring))
E|-----------------------------------------------------------|
B|o----------------------------------------------------------|
G|-----------------------------------------------------------|
D|----------7/-----------10----------------7--------------12-|
A|o-----5-------------8-----------------5--------------------|
D|-0-------------8----------------5------------------10------|

E|--------------------------------------------------------------|
B|-------------------------------------------------------------o|
G|--------------------------------------------------------------|
D|----------7/-----------10----------------7--------------12/13-|
A|------5-------------8-----------------5----------------------o|
D|-0-------------8----------------5------------------10---------|

[Guitar 2]
(Clean + Vibrato Effect)
E|-----------------------------------------------------------|
B|o----------------------------------------------------------|
G|-----------------------------------------------------------|
D|-----------------------------------------------------------|
A|o<5>-------------------------------------------------------|
D|-<5>-------------------------------------------------------|

E|--------------------------------------------------------------|
B|-------------------------------------------------------------o|
G|-------------------------------<7>b/----b\\-------------------|
D|---------------------------------------------------<12>b/-----|
A|-<5>---------------------------------------------------------o|
D|-<5>----------------------------------------------------------|

[Intro]
(Guitar 1) 
(Clean + Delay)
E|-----------------------------------------------------------|
B|o----------------------------------------------------------|
G|-----------------------------------------------------------|
D|----------7------------10----------------7--------------12-|
A|o-----5-------------8-----------------5--------------------|
D|-0-------------8----------------5------------------10------|

E|--------------------------------------------------------------|
B|-------------------------------------------------------------o|
G|--------------------------------------------------------------| 4x
D|----------7------------10----------------7--------------12/13-|
A|------5-------------8-----------------5----------------------o|
D|-0-------------8----------------5------------------10---------|

(Guitar 2)
(Clean + Vibrato Effect)
E|-----------------------------------------------------------|
B|o----------------------------------------------------------|
G|-------------------------------<7>b/----b\\----------------|
D|---------------------------------------------------<12>b/--|
A|o<5>-------------------------------------------------------|
D|-<5>-------------------------------------------------------|

E|--------------------------------------------------------------|
B|-------------------------------------------------------------o|
G|--------------------------------<7>b/---b\\-------------------| 4x
D|---------------------------------------------------<12>b/-----|
A|-<5>---------------------------------------------------------o|
D|-<5>----------------------------------------------------------|

[Riff 1]
(Guitar 1) 
(Clean + Delay)
E|------------------------------------------------------------|
B|o----------------------------------------------------------o|
G|------------------------------------------------------------|
D|---------12----------------12-------------------12----10----| 4x
A|o-------------------------------------------------------10-o|
D|-0----12---------0-------12---------0--------12-------------|
 | pm________________________________________________________|
 
[Guitar 2]
(Clean + Vibrato Effect)
E|-----------------------------------------------------------|
B|o----------------------------------------------------------|
G|-------------------------------<7>b/---b\\-----------------|
D|---------------------------------------------------<12>b/--|
A|o<5>-------------------------------------------------------|
D|-<5>-------------------------------------------------------|

E|--------------------------------------------------------------|
B|-------------------------------------------------------------o|
G|--------------------------------<7>b/---b\\-------------------| 4x
D|---------------------------------------------------<12>b/-----| 
A|-<5>---------------------------------------------------------o|
D|-<5>----------------------------------------------------------|

[Riff 2]
(Guitar 2)
((Clean + Reverb) (Let bottom string ring))
E|--------------------------------------------------------------|
B|o-------------------------------------------------------------|
G|------------------------<7>-----------------------------------|
D|----------------------------------------<7>----------------12-|
A|o-----<7>-----------------------------------------------------|
D|-0-----------------8----------------5-----------------10------|

E|-----------------------------------------------------------------|
B|----------------------------------------------------------------o|
G|------------------------<7>--------------------------------------|
D|----------------------------------------<7>----------------12/13-|
A|------<7>-------------------------------------------------------o|
D|-0-----------------8----------------5-----------------10---------|

[Guitar 1]
E|--------------------------------------------------------------|
B|--------------------------------------------------------------|
G|------------------------<7>-----------------------------------|
D|----------------------------------------<7>----------------12-|
A|------<7>-----------------------------------------------------|
D|-0-----------------8----------------5-----------------10------|

E|-----------------------------------------------------------------|
B|-----------------------------------------------------------------|
G|-----------------------------------------------------------------|
D|-----------------------------------------------------------12/13-|
A|--------0-------1------------------------<5>---------------------|
D|-0-----------------------3---------5-----------------10----------|

[Guitar 1]
E|-----------------------------------------------------------------|
B|-----------------------------------------------------------------|
G|------------------------<7>--------------------------------------|
D|----------------------------------------<7>----------------12/13-|
A|------<7>--------------------------------------------------------|
D|-0-----------------8----------------5-----------------10---------|

E|-----------------------------------------------------------------|
B|-----------------------------------------------------------------|
G|-----------------------------------------------------------------|
D|-----------------------------------------------------------------|
A|--------0-------1-------------------------3----------------5/6---|
D|-0-----------------------3---------5-----------------------------|


[Riff 1]
(Guitar 1)
(Clean + Delay)
E|------------------------------------------------------------|
B|o----------------------------------------------------------o|
G|------------------------------------------------------------|
D|---------12----------------12-------------------12----10----| 4x
A|o-------------------------------------------------------10-o|
D|-0----12---------0-------12---------0--------12-------------|

[Guitar 1]
(Clean + Delay)
E|------------------------------------------------------------|
B|o----------------------------------------------------------o|
G|------------------------------------------------------------|
D|---------12----------------12-------------------12----10----| 3x
A|o-------------------------------------------------------10-o|
D|-0----12---------0-------12---------0--------12-------------|

[Guitar 1]
(Clean + Delay)
E|------------------------------------------------------------|
B|------------------------------------------------------------|
G|------------------------------------------------------------|
D|---------12----------------12-------------------12----10----|
A|--------------------------------------------------------10--|
D|-0----12---------0-------12---------0--------12-------------|

[Guitar 2] 
(Clean + Delay)
E|------------------------------------------------------------------|
B|------------------------------------------------------------------|
G|------10-----------------10-------------------10------------------|
D|---------12----------------12-------10--12-10---12-10-12-10-------|
A|------------------------------------------------------------12-10-|
D|------------------------------------------------------------------|
  pm_______________________________________________________________|

[Riff 3]
(Guitar 1)
(Clean + Delay)                                                                       1.
E|------------------------------------------|----------------------------------------------|
B|o-----------------------------------------|----------------------------------------------|
G|------------------------------------------|----------------------------------------------|
D|------------------------------------------|----------7/-----------10----------------7----|
A|o----0h1---1----3----------3-----7--5-----|------5-------------8-----------------5-------|
D|-0---------------------5------------------|-0-------------8----------------5-------------|

E|----------------|---------------|
B|---------------o|---------------|
G|----------------|---------------|
D|----------12/13-|-7-------------|
A|---------------o|-5-------------|
D|-----10---------|-5-------------|

[Riff 4]
(Guitar 1)
(Distortion)
E|-----------------------------|
B|o---------------------------o|
G|-----------------------------| 4x
D|-0----7-/------10--5/7--7----|
A|o0----5-/------8---3/5--5---o|
D|-0-------------8---3/5--5----|

(At the end pull the strings up then release.)

[Solo]
(Guitar 1)
(Clean + Delay)
E|-----------------------------------------------|
B|o---------------------------------------------o|
G|-----------------------------------------------|
D|-----------------------------------------------|
A|o5----3-5-3-5-------3-5-3-5------3-5-3-5---3--o|
D|-----------------------------------------------|
    pm_________________________________________|

(Occasionally this is played)
[Guitar 1]
(Distortion)
E|-----|
B|-----|
G|-----|
D|---0-|
A|-3---|
D|-----|

[Guitar 1] 
(Clean + Delay)
E|-----------------------------------------------|
B|o---------------------------------------------o|
G|-----------------------------------------------|
D|-----------------------------------------------|
A|o5----3-5-3-5-------3-5-3-5------3-5-3-5---3--o|
D|-----------------------------------------------|
 |  pm_________________________________________|

[Guitar 2] 
(Distortion)
E|------------|-----------------------------------------|
B|o-----10---o|-----------------------------------------|
G|-10h12--12--|-10-12-10-----10-12-10---10-12-10-12~-10-|
D|------------|-----------------------------------------|
A|o----------o|-----------------------------------------|
D|------------|-----------------------------------------|

[Guitar 1]
(Distortion)
E|---------------------------------------------------|
B|o-------------------------------------------------o|
G|---------------------------------------------------|
D|---------------------------------------------------|
A|o------3---3---------3---3----------3---3------3~-o|
D|-0-------0---0---------0---0----------0---0--------|

[Guitar 1]
E|----------------------------------------------------|
B|o--------------------------------------------------o|
G|----------------------------------------------------|
D|----------------------------------------------------|
A|o----------3--------------3--------------3------5h6o|
D|-0-----3-5---0-------3--5---0--------3-5---0--------|

(Some strange effect)

[Guitar 1]
E|------------------------------------------------------------------------------------|
B|o----------------------------------------------------------------------------------o|
G|------------------------------------------------------------------------------------|
D|------------------------------------------------------------------------------------|
A|o--------------------------------------------------------------------------------3~o|
D|-0-----10-10-0-0-10-10-0-------10-10-0-0-10-10-0----0-----10-10-0-0-10-10-0---------|
       pm_______________|      pm_______________|         pm_______________|
       tp_______________|

[Guitar 1]
E|---------------------------------------------------------------------|
B|o-------------------------------------------------------------------o|
G|---------------------------------------------------------------------|
D|---------------------------------------------------------------------|
A|o------3-3-5-5-3-3---------3-3-5-5-3-3----------3-3-5-5-3-3-------3-o|
D|-0-----------------0-------------------0--------------------0--------|
        tp__________|       tp__________|        tp__________|

[Guitar 1]
(Weird Effect)
E|-----|-----------------|
B|-----|-----------------|
G|-----|-----------------|
D|-----|-----3-----------|
A|-3-5-|-3-5---5-3-5-6-5-|
D|-----|-----------------|
    | over and over

[Guitar 1] 
(Distortion)
E|---------------------------|
B|o-------------------------o|
G|---------------------------|
D|-10-12---13---10-12--15-12-| 8x
A|o10-12---13---10-12--15-12o|
D|-10-12---13---10-12--15-12-|

[Guitar 1]
E|---------------------------------------------------|
B|o-------------------------------------------------o|
G|---------------------------------------------------|
D|---------------------------------------------------| 2x
A|o-------3---3---------3---3----------3---3------3~o|
D|-0-------0---0---------0---0----------0---0--------|

[Guitar 1]
E|---------------------------------------------------|---------------------------------------------------|
B|---------------------------------------------------|---------------------------------------------------|
G|---------------------------------------------------|---------------------------------------------------|
D|---------------------------------------------------|---------------------------------------------------|
A|--------3---3---------3---3----------3---3------3~-|------------3-------------3----------3---3------3~-|
D|-0-------0---0---------0---0----------0---0--------|-0------3/5----------3/5--------------0---0--------|

[Riff 3]
[Guitar 1]
(Distortion)
E|------------------------------------------|----------------------------------------------|--------|
B|o-----------------------------------------|----------------------------------------------|--------|
G|------------------------------------------|----------------------------------------------|--------|
D|------------------------------------------|----------7/-----------10----------------7----|-7------|
A|o-----------------------------------------|------5-------------8-----------------5-------|-5------|
D|-0----7/8--8---10-8----5-----12--14--12---|-0-------------8----------------5-------------|-5------|

[Riff 4]
[Guitar 1]
(Distortion)
E|-----------------------------|
B|o---------------------------o|
G|-----------------------------| 4x
D|-0----7-/------10--5/7--7----|
A|o0----5-/------8---3/5--5---o|
D|-0-------------8---3/5--5----|

(Play [Intro] one time then [Riff 1] a few times)


************************************

| /  Slide up
| h  Hammer-on
| ~  Vibrato

************************************

            
            
Suggest correction
Creating personal tab
Creating personal tab
You can edit any tab online and save it as your Personal.

You can edit, replace or remove any tab part or add personal notes – all changes will be seen only by you.

Personal tabs can be accessed anytime from any device, even offline.
Learn more »
comments
print report bad tab
6 comments total. Showing first comments.
-2 reply
Kikuta 40 Apr 21, 2006 06:18 AM

Really basic notes, not enough depth, and the maturity of a six year old.

0 reply
Will-eh 221 Apr 22, 2006 07:01 PM

what?,it looks good to me,

0 reply
JuanArg 10 Apr 24, 2006 09:37 AM

Good tab. Pretty accurate. There are some things that sound kinda weird, but the best tab so far. Cheers.

guest
You may want to rate the tab now too:
select rating
Wanna post a correction for this tab? Suggest correction