Oops, an error
Loading. Please wait.

Right In Two bass

version 2
version 2

Whole song

Interactive

by Tool
14,149 views 39 this week
no commentswrite comment
1 2 3 4 5
x 3
add to favorites
×
Save as Personal and add changes to this tab that will be seen only by you. Learn more ›
×
You can save this tab as Personal to edit and correct it or add notes. All changes will be seen only by you. Learn more »
launch autoscroll
font size
0
reset
guitar tuner
edit
Autoscroll
slow
fast
+/-
esc
set tempo
stop
G|(7)-----------(5)-----(12)-----|(Play as if they were harmonics)
D|-------------------------------|
A|-------------------------------|Repeat this for the intro
D|-------------------------------|
On the last one, just play the muted (7).

G|-----7---------7--------7--------12-(12)-|
D|0---(0)---8---(8)---5---5---/10------10--|
A|-----------------------------------------|
D|-----------------------------------------|

Vary between playing the bracketed notes and not playing them.

On the last round, play the open D and let it ring.

Also, mess around with your volume while playing a tremolo on open D.

G|---------------------------------12----|
D|------------10-----5----------10----10-|
A|---------------------------------------|
D|0--0-0---8-------3-----3--/10----------|

G|-----------------------------------------|
D|------------10---------------------------|
A|-----------------------------------------|
D|0--0-0---8-------1--1-1--1-3~----3-0-3-0-|

[Chorus]
G|----7--------------------------|
D|----5------------10/12---------|
A|-------------------------------|
D|0-------8---10---------3-0-3-0-|

[Post-Chorus]
G|---------------------------|
D|---------------------------|
A|---------------------------|
D|5~---------5/12p0~---------|

G|----------------------|
D|0---0---0--0---0---0--|
A|----------------------|
D|----------------------|

G|--------------------------------------------------|
D|12--10-12-10-12---10-12-10-12---10-12-10-12---10--|
A|--------------------------------------------------|
D|--------------------------------------------------|

G|--------------------------------------------|
D|--------------------------------------------|
A|--------------------------------------------|
D|0---10-0-10-0---10-0-10-0---10-0-10-0---10--|

G|-------------------|  |--------|
D|-------------------|  |--------|
A|-------------------|x3|--------|
D|0--0--101012121010-|  |0--10---|

And I'll tab the rest soon enough, I promise

************************************

| (n)  Ghost note
| /    Slide up
| ~    Vibrato
| p    Pull-off
| x    Dead note

************************************
Suggest correction
Creating personal tab
Creating personal tab
You can edit any tab online and save it as your Personal.

You can edit, replace or remove any tab part or add personal notes – all changes will be seen only by you.

Personal tabs can be accessed anytime from any device, even offline.
Learn more »
Give kudos to tab author, rate the tab!
1 2 3 4 5
comments
print report bad tab
guest
You may want to rate the tab now too:
select rating
Wanna post a correction for this tab? Suggest correction