Oops, an error
Loading. Please wait.

Right In Two tab

version 3
version 3

Whole song

Interactive

by Tool
3,493 views 21 this week
1 commentread comment
1 2 3 4 5
x 6
add to favorites
×
Save as Personal and add changes to this tab that will be seen only by you. Learn more ›
×
You can save this tab as Personal to edit and correct it or add notes. All changes will be seen only by you. Learn more »
launch autoscroll
font size
0
reset
how to read this tab
guitar tuner
edit
Autoscroll
slow
fast
+/-
esc
set tempo
stop
Author
Tabbed by Jeff Lindemer (lipanjambi@yahoo.com)

Artist: Tool
Title: Right In Two
Album: 10,000 Days


Legend: p - pull off
	h - hammer on
	/ - slide up
	<#> - harmonic
	* - repeat

Tuning: DADGBe

Time Signature: 3/4 + 3/4 + 5/4


0:00 - 1:18
progression 1
e-|---------------------------------------------|
B-|---------------------------------------------|
G-|*--------------------------------------------|
D-|*--------7/10---------10p8--------7------12--|
A-|------5-----------8------------5-------------|
D-|---0-----------8------------5--------10------|


e -------------------------------------------------|
B -------------------------------------------------|
G ------------------------------------------------*|
D ---------7/10---------10p8--------7------12/13--*|
A ------5-----------8------------5-----------------|
D ---0-----------8------------5--------10----------|

angels on the sideline
puzzled and amused
why did father give these humans free will
now they're all confused
don't these talking monkeys know that eden has enough to go around
plenty in this holy garden, silly monkeys
where there's one they're bound to divide it
right in

1:18 - 1:42
progression 2
e-|----------------------------------------|
B-|----------------------------------------|
G-|*-------7--------7--------7------------*|
D-|*------------------------------10------*|
A-|------8---8----8---8----8---8------10---|
D-|---0--------0--------0------------------|

two

1:42 - 2:04
progression 3
e-|---------------------------------------------------------------------------|
B-|---------------------------------------------------------------------------|
G-|*-------------<7>-------------------------------<7>-----------------------*|
D-|*---------------------<7-7>------12---------------------<7-7>------12/13--*|
A-|------<7>-------------------------------<7>--------------------------------|
D-|---0-------8-------5---------10------0-------8-------5---------10----------|

angels on the sideline
baffled and confused
father blessed then all with reason
and this is what they choose

2:04 - 2:27
progression 4
e-|-----------------------------------------------------------------------|
B-|-----------------------------------------------------------------------|
G-|--------------<7>------------------------------------------------------|
D-|----------------------<7-7>------12-----------------<7-7>-------12h13--|
A-|------<7>-------------------------------0--1---------------------------|
D-|---0-------8-------5---------10------0--------3--5----------10---------|


e -------------------------------------------------------------------|
B -------------------------------------------------------------------|
G ---------------<7>-------------------------------------------------|
D -----------------------<7-7>------12h13----------------------------|
A -------<7>----------------------------------0--1--------3---5h6----|
D ----0-------8-------5---------10---------0--------3--5-------------|

monkey killing monkey killing monkey over pieces of the ground
silly monkeys give them thumbs they forge a blade
and where there's one they're bound to divide it
right in

2:27 - 3:06

|------(progression 2)------|

two
right in two
monkey killing monkey killing monkey over pieces of the ground
silly monkeys give them thumbs they make a club
and beat their brother

3:06 - 3:12
progression 5
e-|--------------------------------------|
B-|---------------------------6---6------|
G-|-------7--------7----5-7-5---7---7-5--|
D-|--------------------------------------|
A-|-----8---8----8---8-------------------|
D-|--0--------0--------------------------|

down

3:12 - 3:37
progression 6
e-|----------------------------------------------------------------------------|
B-|----------------------------------------------------------------------------|
G-|----------------------------------------------------------------------------|
D-|-------------------------------------7/10--------10p8--------7------12h13---|
A-|-----------1--3-3-----3--7--5-----5-----------8-----------5-----------------|
D-|---0--5h7---------5-----------0-----------8-----------5--------10-----------|


e -------------------------------------------------------------------|
B -------------------------------------------------------------------|
G -------------------------------------------------------------------|
D -------------------------------------7/10--------10p8--------5-----|
A -----------1--3-3-----3--7--5-----5-----------8-----------3--------|
D ---0--3h5---------5------------0-----------8-----------3--------5--|

how they survive so misguided is a mystery
repugnant is a creature who would squander the ability
to lift an eye to heaven conscious of his fleeting time here

3:37 - 4:04				4:04
progression 7
e-|-------------------------------|	e-|---|
B-|-------------------------------|	B-|---|
G-|*-----------------------------*|	G-|---|
D-|*--7---7--7//10---12--12--7---*|	D-|---|
A-|---5---5--5--8----10--10--5----|	A-|---|
D-|---0---0--0--8----10--10--5----|	D-|-0-|

cutting our love right in two
cutting our love right in two
cutting our love right in two
cutting our love right in two

4:04 - 5:23				5:12 and
tabla solo				5:18
e-|--------------------------------|	e-|-------|
B-|--10--10-10--10--10--10-10--10--|	B-|-------|
G-|*-7---7--7---7---7---7--7---7--*|	G-|-------|
D-|*------------------------------*|	D-|-------|
A-|--------------------------------|	A-|--3h5--|
D-|--------------------------------|	D-|-------|

5:20 - 5:23			5:21 - 5:23
e-|---------------------|	e-|-----------------------|
B-|---------------------|	B-|-----------------------|
G-|---------------------|	G-|-----------------------|
D-|---------------------|	D-|--12--10-12-10-12--10--|
A-|--3h5p3h5-3h5p3h5-3--|	A-|-----------------------|
D-|---------------------|	D-|-----------------------|


5:23 - 5:34
progression 8
e-|---------------------------------------------|
B-|---------------------------------------------|
G-|*-------------------------------------------*|
D-|*-------------------------------------------*|
A-|---------------------------------------------|
D-|---0--10-0-10-0--10-0-10-0--10-0-10-0--10~---|


5:34 - 5:44						5:44
progression 9
e-|-------------------------------------------------|	e-|---|
B-|-------------------------------------------------|	B-|---|
G-|*-----------------------------------------------*|	G-|---|
D-|*-----------------------------------------------*|	D-|-0-|
A-|-------------3-----------3------------3----5h6---|	A-|-0-|
D-|---0--2h3-5----0--2h3-5-----0--2h3-5----0--------|	D-|-0-|


5:44 - 6:04					6:01 - 6:04
-|------(bass & drums breakdown)------|		-|--(feedback)--|


6:04 - 6:14
progression 10
e-|--------------------------------------------------------------------|
B-|--------------------------------------------------------------------|
G-|*-----------------------------(play twice)-------------------------*|
D-|*------------------------------------------------------------------*|
A-|--------------------------------------------------------------------|
D-|---0--10-10-0-0-10-10-0--10-10-0-0-10-10-0--10-10-0-0-10-10-0-10~---|

				then

6:14 - 6:24
e-|---------------------------------------|
B-|---------------------------------------|
G-|*------------(play twice)-------------*|
D-|*-------------------------------------*|
A-|------3-5-3----3-5-3-----3-5-3----3~---|
D-|---0--------0---------0--------0-------|


6:24 - 6:34
progression 11
e-|-----------|
B-|-----------|
G-|*---------*|
D-|*---------*|
A-|---3--5----|
D-|-----------|


6:34 - 6:44
progression 12
e-|-------------------------------------|
B-|-------------------------------------|
G-|*-----------------------------------*|
D-|*-----------------------------3-----*|
A-|---0--3--5--0--6--0--3--5--0-----5---|
D-|-------------------------------------|


6:44 - 6:59
progression 13
e-|--------------------------------|
B-|--------------------------------|
G-|*------------------------------*|
D-|*--10--12--13--10--12--15--12--*|
A-|---10--12--13--10--12--15--12---|
D-|---10--12--13--10--12--15--12---|


6:59 - 7:14

-|------(progression 8)------|

angels on the sideline again


7:14 - 7:19

-|------(progression 9)------|

mixing love with patience and reason


7:19 - 7:32
e-|---------------------------------------------------------------------|
B-|---------------------------------------------------------------------|
G-|---------------------------------------------------------------------|
D-|-------------------------------------7/10--------10p8--------5p3--7--|
A-|-----------1--3-3-----3--7--5-----5-----------8-----------3-------5--|
D-|---0--5h7----------5-----------0-----------8-----------3----------5--|


angels on the sideline again
wondering when this tug of war will end


7:32 - 7:43
-|------(progresssion 7)------|

cutting our love right in two
cutting our love right in two

7:43 - 7:48
e-|----------------------------------------|
B-|----------------------------------------|
G-|----------------------------------------|
D-|---7---7--7-/-10---12--12--7------------|
A-|---5---5--5---8----10--10--5------------|
D-|---0---0--0---8----10--10--5--0-5-0-5-7-|

cutting our love right in two
right in

7:48 - 7:51
e-|-------------------------|
B-|-------------------------|
G-|-------------------------|
D-|--7---7--7--10---12--12--|
A-|--5---5--5--8----10--10--|
D-|--0---0--0--8----10--10--|

two

7:51 - 7:57
e-|-----------------------------------------|
B-|-----------------------------------------|
G-|-----------------------------------------|
D-|-------7/10------10p8------5p3----12/13--|
A-|-----5---------8---------3---------------|
D-|--0---------8---------3--------10--------|

right in

7:57 - 8:20

-|------(progression 2)------|

two
Suggest correction
Creating personal tab
Creating personal tab
You can edit any tab online and save it as your Personal.

You can edit, replace or remove any tab part or add personal notes – all changes will be seen only by you.

Personal tabs can be accessed anytime from any device, even offline.
Learn more »
comments
print report bad tab
1 comment total.
0 reply
LiberateUrMind 10 Dec 26, 2006 07:20 PM

The other tabs are closer

guest
You may want to rate the tab now too:
select rating
Wanna post a correction for this tab? Suggest correction