Oops, an error
Loading. Please wait.
641,312 views 963 this week
79 commentsread comments
1 2 3 4 5
accurate
x 153
add to favorites
launch autoscroll
font size
0
reset
how to read this tab
guitar tuner
Autoscroll
slow
fast
+/-
esc
set tempo
stop
Help us to improve Ultimate-Guitar.com Take our survey!
×
Tuning
D G C F A D
[Intro]

e|------------|     e|------------------------|              
B|------------|     B|------------------------|
G|-3--2--5--7-|x2   G|------3-2-------3-2-5---|x4
D|-0--3--5--8-|     D|---3h5-0-0---3h5-0-0-0--|
A|------------|     A|------------------------|
D|------------|     D|------------------------|
                    PM-------------------PM

(listen to song to know when to play notes)
e|----------------3----------5-------------------|
B|---3--------------3----------3-----------------|
G|-----------------------------------------------|x1
D|-----0-----------------------------------------|
A|-----------------------------------------------|
D|-----------------------------------------------|

e|------------------------|                                      
B|------------------------|
G|------5-4-------5-4-7---|
D|---5h7-------5h7--------|x4     
A|-------0-0-------0-0-0--|
D|------------------------|
  PM-------------------PM

  
[Interlude #1]

e|------------------------------|
B|------------------------------|
G|------------------------------|
D|--------10-9---------10-9-12--|x4
A|---10h12--0-0—--10h12--0-0--0-|
D|------------------------------|

e|------------------------|                                           
B|------------------------|
G|------5-4-------5-4-7---|
D|---5h7-------5h7--------|x8    
A|-------0-0---------0-0--|
D|------------------------|
  PM-------------------PM
 

[Interlude #2]

e|------------------------------|
B|------------------------------|
G|------------------------------|
D|--------10-9---------10-9-12--|x4
A|---10h12--0-0—--10h12--0-0--0-|
D|------------------------------|

e|--------------------------------|
B|--------------------------------|
G|--------------------------------|
D|-0-x-x-3-x-x-5-3-x-x-3-5-5------|
A|-0-x-x-3-x-x-5-3-x-x-3-5-5----5-|
D|-0-x-x-3-x-x-5-3-x-x-3-5-5—3h5--|x4

e|------------------------|                                           
B|------------------------|
G|------5-4-------5-4-7---|
D|---5h7-------5h7--------|x8     
A|-------0-0-------0-0-0--|
D|------------------------|
  PM-------------------PM

  
[Interlude #3]

**do same as first interlude 4x then do this
end part whole lots of times until
interlude 4

e|--------------------| 
B|--------------------|
G|--------------------|
D|-----------10-9-12--|
A|---—--10h12--0-0--0-|
D|--------------------|


[Interlude #4]

e|--------------------------------------------------|
B|--------------------------------------------------|
G|--------------------------------------------------|
D|--------------------------------------------------|
A|--14---17---14---19---12---14---10---12-10-12-----|
D|----0-0--0-0--0-0--0-0--0-0--0-0--0-0--0--0--0----|        (PM all notes on D sting)

At end of interlude #4 play this while slowly going from
e|------------------------------|PM to open strings
B|------------------------------|
G|------------------------------|
D|------------------------------|
A|---14---17---14---17---14-14--|
D|-----0-0--0-0--0-0--0-0--0--0-|

e|-----------------------------------------------------|
B|-----------------------------------------------------|
G|-------------------9-----12-----9-----12-----9---9---|
D|-10---5----7---7---x------x-----x------x-----x---x---|x3
A|---8---3--5----7---7-0-0-10-0-0-7-0-0-10-0-0-7-0-7-0-|
D|---------------7-------------------------------------|

e|--------------------|
B|--------------------|
G|--------------------|
D|-10--5----7--5------|x1
A|---8--3--5---5------|
D|-------------5------|

e|----------------------------------------|
B|----------------------------------------|
G|----------------------------------------|
D|-7/8\7-7/8\7--10-8-10--5-3-5--5-5-----0-|x1
A|-7/8\7-7/8\7---8-8-8---3-3-3--3-3-------|
D|-7/8\7-7/8\7---8-8-8---3-3-3------0-0---|

e|------------------------|
B|------------------------|
G|--------------------7---|
D|---0----------------7---|x3
A|--0-----0----3------5---|
D|-----0-5--0-3--0-0------|

e|------------|
B|------------|
G|------------|
D|---0--------|x1
A|--0-----0---|
D|-----0-5-0--|

e|-----------------------------------|
B|-----------------------------------|
G|-----------------------------------|
D|-3-0-2-0-0-3-0-2-0-5-0-0-----------|x4
A|-3-0-2-0-0-3-0-2-0-5-0-0-----------|
D|-3-0-2-0-0-3-0-2-0-5-0-0-----------|
PM-----------------------PM

e|----------------------------------------------|x4
B|----------------------------------------------|
G|----------------------------------------------|
D|x-x-x-x-3-x-x-2-x-x-x-x-3-x-x-2-x-x-5-x-x-x-x-|
A|x-x-x-x-3-x-x-2-x-x-x-x-3-x-x-2-x-x-5-x-x-x-x-|
D|x-x-x-x-3-x-x-2-x-x-x-x-3-x-x-2-x-x-5-x-x-x-x-|

**hold last chord on the last time through this part

e|----------------|
B|----------------|repeat this till end of song.
G|----------------|
D|----------------|*lots of distortion here
A|-------5---6-3--|
D|--0-3h5-0-0-0---|
 PM------------PM
**(lightly PMed) 


***********************************
| /   Slide up
| \   Slide down
| h   Hammer-on
|PM   Palm mute
| x   Dead note   
***********************************
Suggest correction
What's this?
You can suggest a correction to this tab. Community and Mods will review your correction and vote to approve or reject it.
comments
print report bad tab
79 comments total. Showing first comments.
+1 reply
RageAgainstLP 34 wrote on March 3 2002, 12:00 am

great tab man

+1 reply
RageAgainstLP 34 wrote on March 3 2002, 12:00 am

great tab man

+1 reply
dj_icantwalk 178 wrote on March 3 2002, 12:00 am

excellent job man. The end is sorta off though. for a copy of the actual tab taken from guitar world u can check out http://www.angelfire.com/tx4/tabz/schism.txt

guest
You may want to rate the tab now too:
select rating
Please do not post tabs as comments. Select "correction" instead!